Cryptic Fate - Bhobo Ghure Chords & Tabs

 

Bhobo Ghure Chords & Tabs

Cryptic Fate Chords & Tabs

Version: 2 Type: Tab 0 ratings
1 star 2 stars 3 stars 4 stars 5 stars
comments

Bhobo Ghure Tab

song:bhogo ghure
Band cryptic fate
Tabbed by Shadman Salem

Intro:

..=pm

....     .   ...   ....   .   .             
|-----------------------------------------|
|-----------------------------------------|
|-----------------------------------------|
|-3-3---5-5-5-5-5--8-8-8-8-8-8-8-8--6-----|
|-3-3---5-5-5-5-5--8-8-8-8-8-8-8-8--6-----|
|-1-1---3-3-3-3-3--6-6-6-6-6-6-6-6--4-----|
[ Tab from: http://www.guitartabs.cc/tabs/c/cryptic_fate/bhobo_ghure_tab_ver_2.html ]
   ....   .   ...
|-----------------------------------------|
|-----------------------------------------|
|-----------------------------------------|
|---6-6--9-9-9-9-9---9--------------------|
|---6-6--9-9-9-9-9---9--------------------|
|---4-4--7-7-7-7-7---7--------------------|






Bridge;

----------------------------------
----------------------------------
----------7---------11------------
---5-7-8--7--5-7-8--11--5-7-8--5--
----------5---------8----------5--
-------------------------------3--

This song isnt even half complete.
any help on the rest would be greatly apreciated

mail me at shadmansalem@yahoo.com
Comments