Crypt Kicker 5 - Whered My Freedom Go Chords & Tabs

 

Whered My Freedom Go Chords & Tabs

Crypt Kicker 5 Chords & Tabs

Version: 1 Type: Bass Tab 0 ratings
1 star 2 stars 3 stars 4 stars 5 stars
comments

Whered My Freedom Go Bass Tab

Song: Where'd My Freedom Go?
Band: Crypt Kicker 5
Tabbed by: Dave Lake (SidVicious_98@yahoo.com)
[ Tab from: http://www.guitartabs.cc/tabs/c/crypt_kicker_5/whered_my_freedom_go_btab.html ]
Intro
G---------------------------------
D---------------------------------
A--------------------3------------      Repeat 2x
E---------------1--------5----3---
What's going on...

Verse
G------------------------------
D------------------------------
A--------3-3-3-3---------------         Repeat 4x
E-1-1-1-1-------5-5-5-5-3-3-3-3

Chorus
G------------------------
D------------------------
A------------------------
E-5-5-3-3-1----5-5-3-3-1-

Comments