Crowned King - Turn It Up We're Going Down Chords & Tabs

 

Turn It Up We're Going Down Chords & Tabs

Crowned King Chords & Tabs

Version: 2 Type: Tab 0 ratings
1 star 2 stars 3 stars 4 stars 5 stars
comments

Turn It Up We're Going Down Tab

-----------------------------------------------------------------------------
		Turn It Up We're Going Down - Crowned King
-----------------------------------------------------------------------------
Tab by/Credit - Subbliminal - Jay - (Subbliminal@hotmail.com)
              - Most of Chords from Tab by Laura's @ Ultimate-Guitar.com, Good Job.(link below)
	    (  http://www.ultimate-guitar.com/tabs/c/crowned_king/turn_it_up_were_going_down_tab.htm )     

-Tuning is: Standard Tuning
EADGBE (low to high)

IMPORTANT
Note That it must be in this tuning to play the solo properly. It goes all the way up to the
last note of normal tuning and bends it at one point as well.

Solo Fast Part - note: this is very hard to do, but I spent enough time on the song to know it is
                  right.. in fact the solo is the only reason I tabbed it because it is an
                  awesome solo.. anyways if you can do it and make it sound good still it is much
                  easier to do the first pull offs as tapping instead but you have to really press to
                  get the same great tone, I will leave that up to you. The chords under the solo I
                  will add later but it is late now.


h - hammer on 
p - pull off 
b - bend string up said amount. If not said, assume its a quarter bend.
r - release bend. For if the bend is released while still holding the note.
/ - slide up
\ - slide down
v - vibrato
T - tap (with strumming hand)(ie it will be shown as h or r with a T above it)
x - muted, struck string


I leave the Repeats to you, its not that hard to figure them out.

Intro

E|-------------------------------------------------------------|
B|-------------------------------------------------------------|
G|--------7-9---------7-9---4-4-4-4-----------7-7-7-7----------|
D|-9--9-9-7-9--9--9-9-7-9---4-4-4-4--5-5-5-5--7-7-7-7--7-7-7-7-|
A|-9--9-9-5-7--9--9-9-5-7---2-2-2-2--5-5-5-5--5-5-5-5--7-7-7-7-|
E|-7--7-7------7--7-7-------2-2-2-2--3-3-3-3--5-5-5-5--5-5-5-5-|


Intro - Played over last 4 chords with wah.

E|----------------------------------|
B|-7------7-------7--------7-----7--|
G|---7--7---7---7--------7---7------|
D|----9-------9-----9--9-------9----|
A|----------------------------------|
E|----------------------------------|


Verse                                        - With swell or turn up and down volume alot.

E|----------------------------------------|-------------------------------------------------|
B|----------------------------------------|--4---------5----------4-----------5-------------|
G|----------------------------------------|-------------------------------------------------|
D|-9---------------------7----------------|-------------------------------------------------|
A|-9----------9----------7------------7---|-------------------------------------------------|
E|-7----------6----------5------------4---|-------------------------------------------------|


Pre-Chorus Riff


E|-----------|----------------------------------|--------------------------------|
B|-----------|----------------------------------|--------------------------------|
G|-----------|----------------------------------|--4v------------3v--------------|
D|-----------|--5--5-5--5-5-5---2--2-2--2-2-2---|--3v------------2v--------------|
A|-7x-7x-7x--|--5--5-5--5-5-5---2--2-2--2-2-2---|--4v------------xv--------------|
E|-4x-4x-4x--|--3--3-3--3-3-3---0--0-0--0-0-0---|----------------2v--------------|


Chorus

E|--------------------------------------------------------|
B|--------------------------------------------------------|
G|-4-4--4-4-4--------------4-4--4-4--3-3--3-3--3-3x-------|
D|-4-4--4-4-4--2-2--2-2-2--3-3--3-3--2-2--2-2--2-2x-------|
A|-2-2--2-2-2--2-2--2-2-2--4-4--4-4--x-x--x-x--x-xx-------|
E|-------------0-0--0-0-0------------2-2--2-2--2-2x-------|



After Chorus Riff

E|-------------------------------------------------------------|
B|-------------------------------------------------------------|
G|--------7-9---------7-9---4-4-4-4-----------7-7-7-7----------|
D|-9--9-9-7-9--9--9-9-7-9---4-4-4-4--5-5-5-5--7-7-7-7--7-7-7-7-|
A|-9--9-9-5-7--9--9-9-5-7---2-2-2-2--5-5-5-5--5-5-5-5--7-7-7-7-|
E|-7--7-7------7--7-7-------2-2-2-2--3-3-3-3--5-5-5-5--5-5-5-5-|


After Chorus Riff/Intro - Played over last 4 chords with wah.

E|----------------------------------|
B|-7------7-------7--------7-----7--|
G|---7--7---7---7--------7---7------|
D|----9-------9-----9--9-------9----|
A|----------------------------------|
E|----------------------------------|


Verse                                        - With swell or turn up and down volume alot.

E|----------------------------------------|-------------------------------------------------|
B|----------------------------------------|--4---------5----------4-----------5-------------|
G|----------------------------------------|-------------------------------------------------|
D|-9---------------------7----------------|-------------------------------------------------|
A|-9----------9----------7------------7---|-------------------------------------------------|
E|-7----------6----------5------------4---|-------------------------------------------------|


Pre-Chorus Riff


E|-----------|----------------------------------|--------------------------------|
B|-----------|----------------------------------|--------------------------------|
G|-----------|----------------------------------|--4v------------3v--------------|
D|-----------|--5--5-5--5-5-5---2--2-2--2-2-2---|--3v------------2v--------------|
A|-7x-7x-7x--|--5--5-5--5-5-5---2--2-2--2-2-2---|--4v------------xv--------------|
E|-4x-4x-4x--|--3--3-3--3-3-3---0--0-0--0-0-0---|----------------2v--------------|


Chorus
[ Tab from: http://www.guitartabs.cc/tabs/c/crowned_king/turn_it_up_were_going_down_tab_ver_2.html ]
E|--------------------------------------------------------|
B|--------------------------------------------------------|
G|-4-4--4-4-4--------------4-4--4-4--3-3--3-3--3-3x-------|
D|-4-4--4-4-4--2-2--2-2-2--3-3--3-3--2-2--2-2--2-2x-------|
A|-2-2--2-2-2--2-2--2-2-2--4-4--4-4--x-x--x-x--x-xx-------|
E|-------------0-0--0-0-0------------2-2--2-2--2-2x-------|


Pre-Solo Riff - Super Easy

E|----------|
B|----------|
G|----------|
D|----------|
A|-2x-2x----|
E|----------|

Solo

E|-12h14-15-14h15p14----14-----------------------------------------------------------------|
B|-------------------15----15-14-15-14-12-14v--12---12-------------------------------------|
G|-----------------------------------------------15----15-12-15-12-11-12-11--11-12-11--11v-|
D|-------------------------------------------------------------------------14--------------|
A|-----------------------------------------------------------------------------------------|
E|-----------------------------------------------------------------------------------------|


E|-----------------------------------------------------------------------------------------|
B|-----------------------------------------------------------------------------------------|
G|---11v-11-12-11----11--------------------------------------------------------------------|
D|----------------14----14-12-14-12-11-12-11----11----------------------12p11--------------|
A|-------------------------------------------14----14v-14p13----13b--14-------14--13vv-----|
E|-----------------------------------------------------------14----------------------------|

Solo Fast Part - 

E|-7-9-10p7----10p7-10p7-----10p7-10p7----10p7----10p7-10p7----10p7-10p7----10p7-12p7-10p7-|
B|---------10p7---------10p7----------10p7----10p7---------10p7---------10p7---------------|
G|-----------------------------------------------------------------------------------------|
D|-----------------------------------------------------------------------------------------|
A|-----------------------------------------------------------------------------------------|
E|-----------------------------------------------------------------------------------------|


E|-----10p7-12p7-10p7----10p7-12p7-10p7----10p7-12p7-7/14v---------------------------------|
B|-10p7--------------10p7--------------10p7------------------12-------14-------15----------|
G|-----------------------------------------------------------14b16----16b18----14b16-------|
D|-----------------------------------------------------------------------------------------|
A|-----------------------------------------------------------------------------------------|
E|-----------------------------------------------------------------------------------------|

                     T           T           T           T           T           T
E|-12------14------22p14h17p14-21p14h17p14-22p14h17p14-21p14h17p14-22p14h17p14-21p14h17p14-|
B|-15b17---17b19v--------------------------------------------------------------------------|
G|-----------------------------------------------------------------------------------------|
D|-----------------------------------------------------------------------------------------|
A|-----------------------------------------------------------------------------------------|
E|-----------------------------------------------------------------------------------------|

     T           T            T           T           T           T           T
E|-22p14h17p14-21p14h17p14--22p14h17p14-21p14h17p14-22p14h17p14-21p14h17p14-22p14h17p14----|
B|-----------------------------------------------------------------------------------------|
G|-----------------------------------------------------------------------------------------|
D|-----------------------------------------------------------------------------------------|
A|-----------------------------------------------------------------------------------------|
E|-----------------------------------------------------------------------------------------|

     T
E|-21p14h17p14-14b-/22b23v-22b24v-22b24vv--22--19----------22------------------------------|
B|-------------------------------------------22--22-19-22b24-24r22--22b24r22-/17-15v-15-17-|
G|-----------------------------------------------------------------------------------------|
D|-----------------------------------------------------------------------------------------|
A|-----------------------------------------------------------------------------------------|
E|-----------------------------------------------------------------------------------------|


E|---------17------------------------------------------------------------------------------|
B|-15-17b19--19r17-15-17p15---17-15---17p15-----17p15-----17p15-----17p15-----17p15--------|
G|-------------------------16--------------16p14-----16p14-----16p14-----16p14-----16p14---|
D|-----------------------------------------------------------------------------------------|
A|-----------------------------------------------------------------------------------------|
E|-----------------------------------------------------------------------------------------|


E|------------------------------14-----------14------14--14--14----------------------------|
B|-17p15-----17p15-----17-15-15-17b19vv------b19-b19--b19-b19--19r17-15vv\-----------------|
G|------16p14-----16p14--------------------------------------------------------------------|
D|-----------------------------------------------------------------------------------------|
A|-----------------------------------------------------------------------------------------|
E|-----------------------------------------------------------------------------------------|

Solo Chords - Easy to find timing. (Will put in later, but it is late right now)

Chorus

E|--------------------------------------------------------|
B|--------------------------------------------------------|
G|-4-4--4-4-4--------------4-4--4-4--3-3--3-3--3-3x-------|
D|-4-4--4-4-4--2-2--2-2-2--3-3--3-3--2-2--2-2--2-2x-------|
A|-2-2--2-2-2--2-2--2-2-2--4-4--4-4--x-x--x-x--x-xx-------|
E|-------------0-0--0-0-0------------2-2--2-2--2-2x-------|


Closing Riff

E|--------------------------------|
B|--------------------------------|
G|-44-44---------44-44-33---------|
D|-44-44-22-22-2-33-33-22---------| 
A|-22-22-22-22-2-44-44-xx----0-1--|
E|-------00-00-0-------22--2------|


Thanks for checking it out, more tabs to come.
Comments