Crowned King - Dont Wanna Go Chords & Tabs

 

Dont Wanna Go Chords & Tabs

Crowned King Chords & Tabs

Version: 1 Type: Bass Tab 0 ratings
1 star 2 stars 3 stars 4 stars 5 stars
comments

Dont Wanna Go Bass Tab

Crowned King --- www.crownedking.com

Don't Wanna Go Bass Tab

Standard Tuning ( EADG )

~~ = let ring
/ = slide up

Intro:(x2)
G-------------------------------------------555555--|
D----------------------------------------------------|
A--------4(x16)----------7(x16)--------2x2x2---------|
E--2(x16)--------------------------------------------|

Verse:(x2)
G------------------|
D------------------|
A------2/4/5/7---|
E--2~~-------------|

Chorus:(x2)
G---------------------------------------------------|
D----------------------------------------------------|
A--------4(x16)----------7(x16)--------2(x16)--------|
E--2(x16)--------------------------------------------|

Verse:(x2)
G------------------|
D------------------|
A------2/4/5/7---|
E--2~~-------------|
[ Tab from: http://www.guitartabs.cc/tabs/c/crowned_king/dont_wanna_go_btab.html ]
Chorus:(x2)
G---------------------------------------------------|
D----------------------------------------------------|
A--------4(x16)----------7(x16)--------2(x16)--------|
E--2(x16)--------------------------------------------|

Fill:
G-----------------------------------|
D-----------------------------------|
A----2--------------2----22---------|
E-222-2222222222-222-2222-----------|
Mess around with it

Bridge: Don't play anything!

Chorus:(x2)
G---------------------------------------------------|
D----------------------------------------------------|
A--------4(x16)----------7(x16)--------2(x16)--------|
E--2(x16)--------------------------------------------|

Fill:
G-----------------------------------|
D-----------------------------------|
A----2--------------2----22---------|
E-222-2222222222-222-2222-----------|
Comments