Crowded House - Something So Strong Chords & Tabs

 

Something So Strong Chords & Tabs

Crowded House Chords & Tabs

Version: 1 Type: Bass Tab 0 ratings
1 star 2 stars 3 stars 4 stars 5 stars
comments

Something So Strong Bass Tab

CROWDED HOUSE - "Something So Strong" - Bass Tab

Common Time(4/4)
Standard Tuning(EADG)

INTRO:
        (x3)
|-----------|-------------|
|*---------*|-------------|
|*-r-e-s-t-*|-----0-2-5-2-|
|-----------|-------------|
   1 2 3 4    1 2 3 & 4 &

VERSES/SOLO:
|-------------|-------------|-------------|-------------|
|-------------|-------------|-2-r-r-2-r-2-|-------------|
|-5-r-5-5-r-5-|-5-r-0-2-5-2-|-------------|-5-r-0-2-5-2-|
|-------------|-------------|-------------|-------------|
  1 2 3 & 4 &   1 2 3 & 4 &   1 2 3 & 4 &   1 2 3 & 4 &

|-------------|-------------|-------------|-------------|
|-------------|-------------|-------------|-------------|
|-5-r-5-5-r-4-|-2-r-r-2-r-0-|-------------|-5-r-0-2-5-2-|
|-------------|-------------|-3-r-r-3-r-5-|-------------|
  1 2 3 & 4 &   1 2 3 & 4 &   1 2 3 & 4 &   1 2 3 & 4 &

CHORUS:
|-----------|-------------|-------------|-----------------|
|-----------|-------------|-------------|-----------------|
|-.---------|-5-r-0-2-5-2-|-.-----------|-2-2-2-2-0-0-0-0-|
|-3-3-3-3-5-|-------------|-3-3---3-3-5-|-----------------|
  1 2 3 & 4   1 2 3 & 4 &   1 2 3 & 4 &   1 & 2 & 3 & 4 &
[ Tab from: http://www.guitartabs.cc/tabs/c/crowded_house/something_so_strong_btab.html ]
|-----------|-------------|-------------|---------------|
|-----------|-------------|-------------|---------------|
|-.---------|-5-r-0-2-5-2-|-.-----------|-----------2---|
|-3-3-3-3-5-|-------------|-3-3---3-r-3-|-5---5-2-5---5-|
  1 2 3 & 4   1 2 3 & 4 &   1 2 3 & 4 &   1 2 & 3 & 4 &

MIDDLE:
|-12-12-12-12-11-11-11-11-|-------------------------|
|-------------------------|-12-12-12-12-11-11-11-11-|
|-------------------------|-------------------------|
|-------------------------|-------------------------|
  1  &  2  &  3  &  4  &    1  &  2  &  3  &  4  &

|-12-12-12-12-11-11-11-11-|-----------------|
|-------------------------|-7-7-7-7-7-7-7-7-|
|-------------------------|-----------------|
|-------------------------|-----------------|
  1  &  2  &  3  &  4  &    1 & 2 & 3 & 4 &

|-12-12-12-12-11-11-11-11-|-------------------------|
|-------------------------|-12-12-12-12-11-11-11-11-|
|-------------------------|-------------------------|
|-------------------------|-------------------------|
  1  &  2  &  3  &  4  &    1  &  2  &  3  &  4  &

|-12-12-12-12-11-11-----|-------------|-------------|
|-----------------------|-------------|-------------|
|-----------------------|-------------|-----------2-|
|---------------------2-|-5-5-5-2---2-|-5-5-5-2-5---|
  1  &  2  &  3  &  4 &   1 2 3 & 4 &   1 2 3 & 4 &

END:
|------------|--------------|---------|---------|
|*-----------|-------------*|---------|---------|
|*-.---------|-5-r-0-2-5-2-*|-.-------|---------|
|--3-3-3-3-5-|--------------|-3-3-----|---------|
   1 2 3 & 4   1 2 3 & 4 &    1 2 3 4   1 2 3 4

By: Johari Taylor
E-mail: viking@powerup.com.au
More Bass Tabs: http://www.powerup.com.au/~viking/basstab.htm

Comments