Crowded House - Fall At Your Feet Chords & Tabs

 

Fall At Your Feet Chords & Tabs

Crowded House Chords & Tabs

Version: 1 Type: Bass Tab 0 ratings
1 star 2 stars 3 stars 4 stars 5 stars
comments

Fall At Your Feet Bass Tab

Song:      Fall At Your Feet
Artist:    Crowded House
Album:     Recurring Dream, The Very Best Of
Tabbed By: Jason Mangan 

Bass in standard tuning, low to high E, A, D, G.

Intro:
|----------------|----------------|----------------|----------------|
|----------------|----------------|----------------|----------------|
|3-3-3-5---5-----|3-3-3-----------|3-3-3-5---5-----|3-3-3-----------|
|------------6---|------3---3-6-6-|------------6-6-|------3---3-6---|
1 * 2 * 3 * 4 *  1 * 2 * 3 * 4 *  1 * 2 * 3 * 4 *  1 * 2 * 3 * 4 *

|----------------|----------------|
|----------------|----------------|
|3-3-3-5---5-----|3-3-3-----------|
|------------6-6-|------3---3-6-6-|
1 * 2 * 3 * 4 *  1 * 2 * 3 * 4 *

1st Verse:
|----------------|----------------|----------------|----------------|
|----------------|----------------|----------------|----------------|
|3-3-3-3-3-3-3-5-|6-6-6-6-6-6-6-6-|5-5-5-5-5-5-5-5\|------------0-2-|
|----------------|----------------|----------------|3-3-3-3-3-3-----|
1 * 2 * 3 * 4 *  1 * 2 * 3 * 4 *  1 * 2 * 3 * 4 *  1 * 2 * 3 * 4 *

|----------------|----------------|------|----------------|
|----------------|----------------|------|----------------|
|3-3-3-3-3-3-3-5-|6-6-6-6-6-6-6-6-|5-5-5/|----------0-2---|
|----------------|----------------|------|3-3-3-3-3-------|
1 * 2 * 3 * 4 *  1 * 2 * 3 * 4 *  1 * 2  1 * 2 * 3 * 4 *

|----------------|----------------|----------------|----------------|
|----------------|----------------|----------------|----------------|
|3-3-3-3-3-3-3-5-|6-6-6-6-6-6-8-8-|----------------|--------3-3-6-6-|
|----------------|----------------|4-4-4-4-4-4-4-4-|4-4-6-6---------|
1 * 2 * 3 * 4 *  1 * 2 * 3 * 4 *  1 * 2 * 3 * 4 *  1 * 2 * 3 * 4 *

1st Chorus:
|----------------|----------------|----------------|----------------|
|----------------|----------------|----------------|----------------|
|6-6-6-6-6-6-6-6-|----------------|----------------|----------------|
|----------------|6-6-6-6-6-6-6-6-|8-8-8-8-8-8-8-8-|4-4-4-4-4-4-4-4-|
1 * 2 * 3 * 4 *  1 * 2 * 3 * 4 *  1 * 2 * 3 * 4 *  1 * 2 * 3 * 4 *
[ Tab from: http://www.guitartabs.cc/tabs/c/crowded_house/fall_at_your_feet_btab.html ]
|----------------|----------------|----------------|----------------|
|----------------|----------------|----------------|----------------|
|6-6-6-6-6-6-6-6-|------------6-6-|----------------|----------------|
|----------------|6-6-6-6-6-6-----|8-8-8-8-8-8-8-8-|4-4-4-4-4-6---6-|
1 * 2 * 3 * 4 *  1 * 2 * 3 * 4 *  1 * 2 * 3 * 4 *  1 * 2 * 3 * 4 *

|----------------|----------------|----------------|----------------|
|----------------|8-8-8-8---------|----------------|----------------|
|6-6-6-6-6-6-6-6-|--------8p6-----|----------------|----------3-6---|
|----------------|------------8-6-|8-8-8-8-8-8-8-8-|4-4-4-4-4-------|
1 * 2 * 3 * 4 *  1 * 2 * 3 * 4 *  1 * 2 * 3 * 4 *  1 * 2 * 3 * 4 *

2nd Verse:
|----------------|----------------|----------------|----------------|
|----------------|----------------|----------------|----------------|
|3-3-3-3-3-3-3-5-|6-6-6-6-6-6-6-6-|5-5-5\--5-5-5\--|----------0-2-3-|
|----------------|----------------|----------------|3-3-3-3-3-------|
1 * 2 * 3 * 4 *  1 * 2 * 3 * 4 *  1 * 2 * 3 * 4 *  1 * 2 * 3 * 4 *

|----------------|----------------|----------------|
|----------------|----------------|----------------|
|6-6-3-3-3-3-3-5-|6-6-6-6-6-6-6-6-|5-5-5/----0-2---|
|----------------|----------------|--------3-------|
1 * 2 * 3 * 4 *  1 * 2 * 3 * 4 *  1 * 2 * 3 * 4 *

|----------------|----------------|----------------|----------------|
|----------------|----------------|----------------|----------------|
|3-3-3-3-3-3-3-5-|6-6-6-6-6-6-8-8-|----------------|------3---6-8-6-|
|----------------|----------------|4-4-4-4-4-4-4-4-|4-6-------------|
1 * 2 * 3 * 4 *  1 * 2 * 3 * 4 *  1 * 2 * 3 * 4 *  1 * 2 * 3 * 4 *

2nd Chorus and Outro Chorus:
|----------------|----------------|----------------|----------------|
|----------------|----------------|----------------|----------------|
|6-6-6-6-6-6-6-6-|----------------|----------------|----------------|
|----------------|6-6-6-6-6-6-6-6-|8-8-8-8-8-8-8-8-|4-4-4-4-4-4-4-4-|
1 * 2 * 3 * 4 *  1 * 2 * 3 * 4 *  1 * 2 * 3 * 4 *  1 * 2 * 3 * 4 *

Keep repeating this with slight variations. I got tired of trying to
tab it all out note fof note, but I'm sure Nick Seymour can't remember
exactly what he played either!

then...
|----------------|----------------|
|----------------|----------------|
|----------------|6---------------|
|4-4-4-4-4---6---|----------------|
1 * 2 * 3 * 4 *  1 * 2 * 3 * 4 *


Comments