Crowded House - Dont Dream Its Over Chords & Tabs

 

Dont Dream Its Over Chords & Tabs

Crowded House Chords & Tabs

Version: 1 Type: Bass Tab 0 ratings
1 star 2 stars 3 stars 4 stars 5 stars
comments

Dont Dream Its Over Bass Tab

Song:      Don't Dream It's Over
Artist:    Crowded House
Album:     Recurring Dream, The Very Best Of
Tabbed by: Jason Mangan
Date:      17-2-2001

Bass should be in standard tuning, low to high E, A, D, G.
If you want to play along with the record you will have to tune your bass 
sharp
(tighten strings).  I originally tabbed it with my bass tuned down but it is
easier this way as you get to play some open strings.
I've tabbed the whole song here but the verses and choruses are basically 
the same.
I also think that the song could have been played on a 5 string bass as a 
few of the
notes in the chorus seem to be an octave lower.  Four strings is enough for 
the
average man like me though!

Intro:
|------------------------------------------------|
|------------------------12-14-12----------12\---|
|------------------12h14----------14-12-14-------|
|------------------------------------------------|
1     *     2     *     3     *     4     *

1st Verse:
|----------------|----------------|----------------|----------------|
|----------------|----------------|----------------|----------------|
|5-----5---------|----------------|----------------|----------------|
|--57----------5/|7-------------75|3-02-23-3-------|2-----0-2-----35|
1 * 2 * 3 * 4 *  1 * 2 * 3 * 4 *  1 * 2 * 3 * 4 *  1 * 2 * 3 * 4 *

|----------------|----------------|----------------|----------------|
|----------------|----------------|----------------|--------4---4---|
|5----55---------|----------------|----------------|----------------|
|--57----------56|7-------------75|3-02-23-3-------|2-----02------02|
1 * 2 * 3 * 4 *  1 * 2 * 3 * 4 *  1 * 2 * 3 * 4 *  1 * 2 * 3 * 4 *

1st Chorus:                    (x3)
|----------------|----------------||----------------|----------------|
|----------------|----------------||----------------|----------------|
|----------------|5-----5---------||----------------|----------------|
|3-----3-5-----5-|--------7----75-||3-----3-3-----3-|3-----3-3--5--5-|
1 * 2 * 3 * 4 *  1 * 2 * 3 * 4 *   1 * 2 * 3 * 4 *  1 * 2 * 3 * 4 *

2nd Verse:
|----------------|----------------|----------------|----------------|
|----------------|----------------|----------------|--------4---4---|
|5-----5---------|----------------|----------------|----------------|
|--57----------5-|7-------------75|3-02--3-3-------|2-----02------2-|
1 * 2 * 3 * 4 *  1 * 2 * 3 * 4 *  1 * 2 * 3 * 4 *  1 * 2 * 3 * 4 *

|----------------|----------------|----------------|----------------|
|----------------|----------------|----------------|--------4p2-----|
|5-----5---------|----------------|----------------|----------------|
|--57----------56|7-------------75|3-02-23-3-------|2-----02----0-2-|
1 * 2 * 3 * 4 *  1 * 2 * 3 * 4 *  1 * 2 * 3 * 4 *  1 * 2 * 3 * 4 *

2nd Chorus:                    (x3)
|----------------|----------------||----------------|--------|
|----------------|----------------||----------------|--------|
|----------------|5-----5---------||----------------|--------|
|3-----3-5-----5-|--------7----75-||3-----3-3-----3-|3-----3-|
1 * 2 * 3 * 4 *  1 * 2 * 3 * 4 *   1 * 2 * 3 * 4 *  1 * 2 *
[ Tab from: http://www.guitartabs.cc/tabs/c/crowded_house/dont_dream_its_over_btab.html ]
Interlude:
|----------------|----------------|----------------|----------------|
|----------------|----------------|----------------|--------4-------|
|5-----5-5-----5-|----------------|----------------|----------------|
|----------------|7-----7-7-----75|3-----3-3-----3-|2----202----2-02|
1 * 2 * 3 * 4 *  1 * 2 * 3 * 4 *  1 * 2 * 3 * 4 *  1 * 2 * 3 * 4 *

|----------------|----------------|----------------|----------------|
|----------------|----------------|----------------|----------------|
|5-----5---------|----------------|----------------|----------------|
|--57----------56|7-----7-7-----75|3-02-23-3-3---3-|2-----2-2-----2-|
1 * 2 * 3 * 4 *  1 * 2 * 3 * 4 *  1 * 2 * 3 * 4 *  1 * 2 * 3 * 4 *

|----------------|----------------|----------------|----------------|----------------|
|----------------|----------------|-----5h7--------|----------------|------------7h9-|
|--------5-----5-|--------5-----5-|--------5-----5-|3-----3-3-----3-|5---7---7h9-----|
|3-----3---------|3-----3---------|3---------------|----------------|----------------|
1 * 2 * 3 * 4 *  1 * 2 * 3 * 4 *  1 * 2 * 3 * 4 *  1 * 2 * 3 * 4 *  1 * 2 * 
3 * 4 *

3rd Verse:
|----------------|----------------|----------------|----------------|
|----------------|----------------|----------------|----------------|
|5-----5-5-5-5---|----------------|----------------|----------------|
|--57----------5-|7-7-7-7-7-7-7-75|3-02-23-3-3-3-3-|2-2-2-2-2-2-2-2-|
1 * 2 * 3 * 4 *  1 * 2 * 3 * 4 *  1 * 2 * 3 * 4 *  1 * 2 * 3 * 4 *

|----------------|----------------|----------------|----------------|
|----------------|----------------|----------------|----------------|
|5----55---5-5---|----------------|----------------|----------------|
|--57----------5-|7-7-7-7-7-7-7-75|3-02-23-3-3-3-3-|2-2-2-2-2-2-2-2-|
1 * 2 * 3 * 4 *  1 * 2 * 3 * 4 *  1 * 2 * 3 * 4 *  1 * 2 * 3 * 4 *

3rd Chorus:
|----------------|----------------|----------------|----------------|
|----------------|----------------|----------------|----------------|
|----------------|5-----57--------|----------------|5-----57--------|
|3-----3-5-----5-|--------7-----7-|3-----3-5-----5-|--------7-----75|
1 * 2 * 3 * 4 *  1 * 2 * 3 * 4 *  1 * 2 * 3 * 4 *  1 * 2 * 3 * 4 *

|----------------|----------------|----------------|--------|
|----------------|----------------|----------------|--------|
|----------------|5-----57--------|----------------|--------|
|3-----3-5-----5-|--------7-----75|3-----3-3-----3-|3-----3-|
1 * 2 * 3 * 4 *  1 * 2 * 3 * 4 *  1 * 2 * 3 * 4 *  1 * 2 *

Outro:
|----------------|----------------|----------------|--------7-------7---7-9-11-9-7\-|
|----------------|----------------|---5------------|----7/9-----7h9---9-------------|
|----------------|5-----57--------|----------------|5-------------------------------|
|3-----3-5-----5-|--------7-----75|3-3----35-----5-|--------------------------------|
1 * 2 * 3 * 4 *  1 * 2 * 3 * 4 *  1 * 2 * 3 * 4 *  1   *   2   *   3   *   4 
   *

|----------------|----------------|----------------|--------------------7---9-7-----|
|----------------|----------------|----------------|--------------7/9-----------9---|
|----------------|5-----5---------|----------------|5-------------------------------|
|3-----3-5-----5-|--------7----75-|3-----3-5-----5-|--------------------------------|
1 * 2 * 3 * 4 *  1 * 2 * 3 * 4 *  1 * 2 * 3 * 4 *  1   *   2   *   3   *   4 
   *

(fading)
|----------------|----------------|----------------|----------------|
|----------------|----------------|---5-------7----|----------------|
|----------------|5-----5---------|----------------|5-----57--------|
|3-----3-5-----5-|--------7----75-|3-3---3-5-5---5-|--------7-7-775-|
1 * 2 * 3 * 4 *  1 * 2 * 3 * 4 *  1 * 2 * 3 * 4 *  1 * 2 * 3 * 4 *

The End.

Comments