Crowded House - Better Be Home Soon Chords & Tabs

 

Better Be Home Soon Chords & Tabs

Crowded House Chords & Tabs

Version: 1 Type: Bass Tab

Better Be Home Soon Bass Tab

Come in after these lyrics and the little guitar riff.

Somewhere deep inside
somethings got a hold on you
and it's pushing me aside
see it stretch on forever

and i know im right
for the first time in my life
and thats why i tell you
you'd better be home soon

G------------------------------------------------------------------------------------|
D-----0-2-----5/75-----------------5--------0-2-----5/75--------------------------20-|
A-3--3----00-0----75------------3/5---7/3--3----00-0----757--7------------3--33--3---|
E-------------------0--00--03--3------------------------------0--03--33--3-----------|

G-------------------------------------------------------------------------------------|
D-0-0------------3-----2------------------------------------------------------------5-|
A-----3---------------0---------5--7--------3--33--32--22--21--11--1/5--55-------3/5--|
E------0-1--01--0---01--13--33/5----3--33--3--------------------------------03--3-----|
[ Tab from: http://www.guitartabs.cc/tabs/c/crowded_house/better_be_home_soon_btab.html ]
G------------------------------------------------------------------------------------|
D------------------------------------------------------------020---------------------|
A--01--11--10--00--0/5--5/75--03--3/53---0--00--------------2-----3--333-2-0--00-----|
E---------------------------------------3-------3-0--00--03------3---------------3-0-|

G-------------------------------------------------------------------12----12,10--9---|
D-----------------------------------------------/10--------5-------------------12-10-|
A-----------------------1--11--110--1-23---------------------------------------------|
E--00--01--11--11--11--1-----------3-------------------------------------------------|

G------------------------------------------------------------------------------------|
D--------10/12,10-----------------------------------20-0-0---------------------------|
A------------------12/----------------------3--33--3-------3-------------------------|
E-----------------------00--000--011--133--3----------------0-1--01--01--01--03--33--|

G-----------------------------------------|
D-----------------------------------------|
A----------0--00--05--5/75,0--------------|
E-33--33--3-----------------01--11--0-----|1,3(let ring)

                                                   You'd better be home....soooon

Not 100% accurate. Best I could do.

Wookiee

m_gunton@hotmail.com