Crowbar - Dead Sun Chords & Tabs

 

Dead Sun Chords & Tabs

Crowbar Chords & Tabs

Version: 1 Type: Tab

Dead Sun Tab

   
Crowbar - Dead Sun
drop d
~=vibrato
.=palm mute                                        _____      
b=bend
 (0:02)                                            |1                  
  1 & 2 & 3  4    1 & 2 & 3 & 4 &    1 & 2 & 3  4    1 & 2 & 3 & 4 & 
|---------------|------------------|---------------|------------------||
|---------------|------------------|---------------|-----------------O||
|---------------|------------------|---------------|------------------||
|---------------|------------------|---------------|------------------||
|-0-3-2-3-6--5--|-5-0-0-0-0-0-0-0--|-0-3-2-3-6--5--|-5-0-0-0-0-0-0-0-O||
|-0-3-2-3-6--5--|-5-0-0-0-0-0-0-0--|-0-3-2-3-6--5--|-5-0-0-0-0-0-0-0--||
 _____              . . . . . . .                      . . . . . . .
 |2 
  1 & 2 & 3   4 &
|-----------------|
|-----------------|
|-----------------|
|-----------------|
|-5-0-0-0-----0-0-|
|-5-0-0-0-3b--0-0-|
[ Tab from: http://www.guitartabs.cc/tabs/c/crowbar/dead_sun_tab.html ]
 (0:44)
  1  2  3  4    1  2  3 &  4          1-2
|-------------|---------------||    |------|
|-------------|--------------O||   2|------|
|-------------|---------------||x3 -|------|
|-------------|---------------||   4|------|
|-0--6--5--3--|-0--7--5-7--3-O||    |-2----|
|-0--6--5--3--|-0--7--5-7--3--||    |-2----|

 (1:50)
  1 & 2  3 & 4    1  2  3 & 4 &   1 & 2 & 3  4    1  2  3 & 4 &
|---------------|---------------|---------------|---------------|
|---------------|---------------|---------------|---------------|
|---------------|---------------|---------------|---------------|
|---------------|---------------|---------------|---------------|
|-0-0----0-0----|-1--1--0-0-0-0-|-0-3-2-3-9-----|-1--1--0-0-0-0-|
|-0-0----0-0----|-1--1--0-0-0-0-|-0-3-2-3-9--8~-|-1--1--0-0-0-0-|          
  . .    . .            . . . .                         . . . .            
  1 & 2 & 3  4 & 
|----------------|
|----------------|
|----------------|
|----------------|
|-0-3-2-3-7--8-5-|
|-0-3-2-3-7--8-5-|

 (3:02)
  1 & 2  3 & 4    1 & 2 & 3 & 4 & 
|---------------|-----------------|
|---------------|-----------------|
|---------------|-----------------|
|---------------|-----------------|
|-1-1----1-1----|-0-0-0-0-0-0-0-0-|
|-1-1----1-1----|-0-0-0-0-0-0-0-0-|
  . .    . .      . . . . . . . .

 (last bar)
  1 & 2 & 3-4
|--------------|
|--------------|
|--------------|
|--------------|
|-5-0-0-0------|
|-5-0-0-0-3b---|