Crossfade - Disco Chords & Tabs

 

Disco Chords & Tabs

Crossfade Chords & Tabs

Version: 2 Type: Tab 0 ratings
1 star 2 stars 3 stars 4 stars 5 stars
comments

Disco Tab

   
Band- Crossfade
Song- Disco

Tuning: Drop B (B-F#-B-E-G#-C# low to high)

Key:
~~ = vibrato/hold note
^ = bend note
/ = slide up
\ = slide down

Intro:
C#|--------------------------------------------------------------|
G#|--------------------------------------------------------------|
E |---5~~~~~~~~~~~~~~~~------------------------------------------|
B |------------7~~~~~~~------------------------------------------|
F#|--------------------------------------17-17-17-17-17-17-17----|
B |--------------------0~~~~~~//////////-20-20-20-20-20-20-20----|


Main Riff: (3x)
C#|---------------------------------|
G#|---------------------------------|
E |---------------------------------|
B |---------------------------------|
F#|----------5-----4----------------|
B |--0--0--0--6--0--5--0-3-5--------|


Last time before Verse:
C#|---------------------------------|
G#|---------------------------------|
E |---------------------------------|
B |---------------------------------|
F#|----------5-----4-----7----------|
B |--0--0--0--6--0--5--0-7----------|

Verse Part 1: (4x)
C#|---------------------------------|
G#|---------------------------------|
E |---------------------------------|
B |-3/7--3-7---7--7--7-3------------|
F#|-3/7--3-7---7--7--7-3------------|
B |-3/7--3-7---7--7--7-3------------|

Verse Part 2: (2x)
C#|---------------------------------|
G#|---------------------------------|
E |-------5-------------------------|
B |----7-----7--7^------------------|
F#|-5-------------------------------|
B |---------------------------------|

Verse Part 1: (3x)
C#|---------------------------------|
G#|---------------------------------|
E |---------------------------------|
B |-3/7--3/7--7--7--7--3------------|
F#|-3/7--3/7--7--7--7--3------------|
B |-3/7--3/7--7--7--7--3------------|

C#|---------------------------------|
G#|---------------------------------|
E |---------------------------------|
B |-3/7--3/7--7--7--7--3---3~-------|
F#|-3/7--3/7--7--7--7--3---3~-------|
B |-3/7--3/7--7--7--7--3---3~-------|

(while holding 3~ play...)
C#|---------------------------------|
G#|---------------------------------|
E |--10-9-7-5-7-----10--------------|
B |--------------7------------------|
F#|---------------------------------|
B |---------------------------------|

Chorus: (8x) (something like this...hard to hear)
C#|------------------------|
G#|------------------------|
E |------------------------|
B |------------------------|
F#|--5-5-5-5--5---4--------|
B |----------0-6-0-5--0-5--|

Main Riff Again: 3x
C#|---------------------------------|
G#|---------------------------------|
E |---------------------------------|
B |---------------------------------|
F#|----------5-----4----------------|
B |--0--0--0--6--0--5--0-3-5--------|

Last time before Verse 2:
C#|---------------------------------|
G#|---------------------------------|
E |---------------------------------|
B |---------------------------------|
F#|----------5-----4-----7----------|
B |--0--0--0--6--0--5--0-7----------|
[ Tab from: http://www.guitartabs.cc/tabs/c/crossfade/disco_tab_ver_2.html ]
Verse Part 1: (4x)
C#|---------------------------------|
G#|---------------------------------|
E |---------------------------------|
B |-3/7--3-7---7--7--7-3------------|
F#|-3/7--3-7---7--7--7-3------------|
B |-3/7--3-7---7--7--7-3------------|

Verse Part 2: (2x)
C#|---------------------------------|
G#|---------------------------------|
E |-------5-------------------------|
B |----7-----7--7^------------------|
F#|-5-------------------------------|
B |---------------------------------|

Verse Part 1: (3x)
C#|---------------------------------|
G#|---------------------------------|
E |---------------------------------|
B |-3/7--3/7--7--7--7--3------------|
F#|-3/7--3/7--7--7--7--3------------|
B |-3/7--3/7--7--7--7--3------------|

C#|---------------------------------|
G#|---------------------------------|
E |---------------------------------|
B |-3/7--3/7--7--7--7--3---3~-------|
F#|-3/7--3/7--7--7--7--3---3~-------|
B |-3/7--3/7--7--7--7--3---3~-------|

(while holding 3~ play...)
C#|---------------------------------|
G#|---------------------------------|
E |--10-9-7-5-7-----10--------------|
B |--------------7------------------|
F#|---------------------------------|
B |---------------------------------|

Chorus: (8x) (something like this...hard to hear)
C#|------------------------|
G#|------------------------|
E |------------------------|
B |------------------------|
F#|--5-5-5-5--5---4--------|
B |----------0-6-0-5--0-5--|

Breakdown: (4x)
C#|-------------------------------|-------------------------------|
G#|-------------------------------|-------------------------------|
E |-------------------------------|-------------------------------|
B |--8-------8-----8--------------|--8-------8--8-----------------|
F#|--6-------6-----6--------------|--6-------6--6-----------------|
B |-----0--------0---0------------|-----0----------0---0----------|
        pm       pm  pm                 pm         


Chorus (without words) (3x)
C#|------------------------|
G#|------------------------|
E |------------------------|
B |------------------------|
F#|--5-5-5-5--5---4--------|
B |----------0-6-0-5--0-5--|

Then once:
C#|--------------------------|
G#|--------------------------|
E |--------------------------|
B |--------------------------|
F#|--5-5-5-5--5---4------3---|
B |----------0-6-0-5--0---4--|

Outro: 

   <----Play 3 times-->  < Play Once >
C#|--------------------|---------------|
G#|--------------------|---------------|
E |--------------------|---------------|
B |--3--7--0-0--0------|-3---7---10----|
F#|--1--5--0-0--0------|-1---5----8----|
B |--------0-0--0------|---------------|
          pm.....

   <----Play 3 times-->  < Play Once >
C#|--------------------|---------------|
G#|--------------------|---------------|
E |--------------------|---------------|
B |--3--7--0-0--0------|-3---7---5-----|
F#|--1--5--0-0--0------|-1---5---3-----|
B |--------0-0--0------|---------------|
          pm.....

   <----Play 3 times-->  < Play Once >
C#|--------------------|---------------|
G#|--------------------|---------------|
E |--------------------|---------------|
B |--3--7--0-0--0------|-3---7---10----|
F#|--1--5--0-0--0------|-1---5----8----|
B |--------0-0--0------|---------------|
          pm.....

   <----Play 3 times-->  < Play Once >
C#|--------------------|---------------|
G#|--------------------|---------------|
E |--------------------|---------------|
B |--3--7--0-0--0------|-3---7---5---0-|
F#|--1--5--0-0--0------|-1---5---3---0-|
B |--------0-0--0------|-------------0-|
          pm.....
Comments