Crossfade - Dead Skin Chords & Tabs

 

Dead Skin Chords & Tabs

Crossfade Chords & Tabs

Version: 3 Type: Tab 0 ratings
1 star 2 stars 3 stars 4 stars 5 stars
comments

Dead Skin Tab

*droped D tuning

e-----------------------------------------------------|
b------------------------------3---5---3--------------|
g------------------3----------------------------------|
d------2/4--0---------4------4------------------------|
a----0----------4----------2--------------------------|
D--0----------4---------------------------------------|
[ Tab from: http://www.guitartabs.cc/tabs/c/crossfade/dead_skin_tab_ver_3.html ]
e------------------------------------------------------|
b------------------------------3--2--3-----------------|
g------------------3-------------------2---------------|
d------2/4--0---------4------4-------------------------|
a----0----------4----------2---------------------------|
D--0----------4----------------------------------------|

e-----------------------------------------------------|
b-----------------------------3-----------------------|
g------------------3----------------------------------|
d------2/4--0--------4------4-----5--4----------------|
a----0----------4---------2---------------------------|
D--0----------4---------------------------------------|

Here is the corrected version of this song. Enjoy! it is a very fun song to play
Comments