Crossfade - Dead Skin Chords & Tabs

 

Dead Skin Chords & Tabs

Crossfade Chords & Tabs

Version: 2 Type: Tab 0 ratings
1 star 2 stars 3 stars 4 stars 5 stars
comments

Dead Skin Tab

e---------------------------------|
b------------------------4-6-4----|
g-----------------3----0--------3-|
d-----3/5------0------------------|
a---1----------------3------------|
E-0---------4---------------------|
[ Tab from: http://www.guitartabs.cc/tabs/c/crossfade/dead_skin_tab_ver_2.html ]
e----------------------------------|
b--------------------------4--3--4-|
g------------------4----0----------|
d------3/5------0------------------|
a---1----------------3-------------|
E-0----------4---------------------|


/-slide up


this is my first tab but i think it is right. Enjoy!
Comments