Crossfade - Dead Skin Chords & Tabs

 

Dead Skin Chords & Tabs

Crossfade Chords & Tabs

Version: 1 Type: Tab 2 ratings
1 star 2 stars 3 stars 4 stars 5 stars
comments

Dead Skin Tab

   
 
 Whats going on people hope your enjoying the tabs, I am going to try and tab the 
whole album and I will be putting up an acoustic version of cold for all who have asked 
so have fun and let me know how you do.
                                         Later,
                                              MicheaL RobinsoN

If you have any questions e-mail me at slimboyd20@yahoo.com


Crossfade - Dead Skin

Dropped D Tuning: [D A D G B e]

[Intro]

e-------------------------------|
B-----------------------3-5-3---|
G---------------2-------------2-|
D-----2h4-0---0---0---0---------|
A---0---------------2-----------|
D-0---------4-------------------|

e---------------------------------|
B-----------------------3-2-3-----|
G---------------3-------------2---|
D-----2h4-0---0---0---0---------0-|
A---0---------------2-------------|
D-0---------4---------------------|
[ Tab from: http://www.guitartabs.cc/tabs/c/crossfade/dead_skin_tab.html ]
e-------------------------------|
B-----------------------3-------|
G---------------2---------------|
D-----2h4-0---0---0---0---5-4---|
A---0---------------2---------0-|
D-0---------4-------------------|

e---------------------------|
B-----------------------3-5-|
G---------------3-----------|
D-----2h4-0---0---0---0-----|
A---0---------------2-------|
D-0---------4---------------|

[Verse]

e-------------------------------|
B-----------------------3-5-3---|
G---------------2-------------2-|\
D-----2h4-0---0---0---0---------| \
A---0---------------2-----------|  \
D-0---------4-------------------|   \
                                     > x4
e-------------------------------|   /
B-----------------------3-5-3---|  /
G---------------3-------------2-| /
D-----2h4-0---0---0---0---------|/
A---0---------------2-----------|
D-0---------4-------------------|

Finish repeating the verse with this:

e---------------------------|
B-----------------------3-5-|
G---------------3-----------|
D-----2h4-0---0---0---0-----|
A---0---------------2-------|
D-0---------4---------------|
Comments