Crossfade - Dead Skin Chords & Tabs

 

Dead Skin Chords & Tabs

Crossfade Chords & Tabs

Version: 1 Type: Bass Tab 0 ratings
1 star 2 stars 3 stars 4 stars 5 stars
comments

Dead Skin Bass Tab

Crossfade
Dead Skin
tabbed by saturns_bassman


Verse
				Little Fill
G------------------------------|------------------------||
D-----------------------------*|------------------------||
A------------------------------|--5---0-----------------||
E-------2--------------2------*|------------------------||
B--3---------0----3---------0--|---------0--------------||
[ Tab from: http://www.guitartabs.cc/tabs/c/crossfade/dead_skin_btab.html ]
Chorus
G---------------------------------|
D---------------------------------|
A----------------2---2---2---2----|
E-------2-------------------------|
B--3---------0-----0---0---0---0--|

Verse 2

G--------------------------------|
D-------------------------------*|
A--------------------------------|
E-------------------------------*|
B--3~/7~\0~--3~/7~\0~--3~/7~\0~--|

Bridge
G-----------------------------------|
D----------------------------------*|
A------------5~\0~/2~---------------|
E----------------------10~\2~/5~---*|
B--3~/7~\0~-------------------------| Play with the order of this it's easy to hear

End On 
G-----|
D-----|
A--2--|
E-----|
B--0--| pick one or both i like the sound of playing both octives
Comments