Crossfade - Colors Chords & Tabs

 

Colors Chords & Tabs

Crossfade Chords & Tabs

Version: 3 Type: Tab

Colors Tab

   
This is one of my favorite songs

/=slide up
\=slide down
h=hammer-on
p=pull-off
x=mute note
<>=harmonics

intro
      Harmonics
|-----------------<12>|
|---------------------|
|---------------------|
|<7>------<12>--------|
|----<7>-------<12>---|
|---------------------|

|-----------------------------------------------------------------|
|-----------------------------------------------------------------|
|--2-------------2----------------2-----2----------2--------------|
|----0-0---0-------0---------0------0----------------------------0|
|--------1---0-------0-----4----------1---0p1-0-------0----0---4--|
|0------------3-------3-2--------0---------------3-------2---2----|

verse
|-----------------------------------------------------------|
|-----------------------------------------------------------|
|---2-------------2---0-----------2------------2------------|
|-----0---0-----------------0---0-----0------------0-------0|
|-------1---1-0---------0-4---------1---0p1-0--------0-3\4--|
|-0-------------3---2---------0---------------3--2----------|

|------------------------------------------------------------------|
|------------------------------------------------------------------|
|---2-------2------2-0---------------2---------2------2------------|
|-----0---0---0-----------------0------0---0-----0----------------0|
|-------1-------0---------0---4----------1---1--------------0---4--|
|-0---------------3-----2---2------0----------------3-----2---2----|
[ Tab from: http://www.guitartabs.cc/tabs/c/crossfade/colors_tab_ver_3.html ]
|--------------------------------------------------------|
|--------------------------------------------------------|
|---2-------2------2---------------2-----2-----------2---|
|-----0---0---0------0----0----------0-----0------------0|
|-------1-------0-----------0-4--------1-----0-1p0-------|
|-0---------------3----2---------0-----------------3-----|

chorus
|----------------------------|
|----------------------------|
|----------------------------|
|0-0-0-3-3-3-3-10-10-10-5-5-3|
|0-0-0-3-3-3-3-10-10-10-5-5-3|
|0-0-0-3-3-3-3-10-10-10-5-5-3|

main rift
Harmonics
|-----------------<12>|
|---------------------|
|---------------------|
|<7>------<12>--------|
|----<7>-------<12>---|
|---------------------|

|-----------------------------------------------------------------|
|-----------------------------------------------------------------|
|--2-------------2----------------2-----2----------2--------------|
|----0-0---0-------0---------0------0----------------------------0|
|--------1---0-------0-----4----------1---0p1-0-------0----0---4--|
|0------------3-------3-2--------0---------------3-------2---2----|

play this until the end
|--------------------------------------|--------------------|
|--------------------------------------|--------------------|
|--------------------------------------|--------------------|
|0-------8-----------------------------|-0-0-0-7-5-----5----|
|0-8-8-7-8-7-7-0-3-3-0-3-3-8-8-7-8-7-7-|-0-0-0-5-3-x-x-3-5-3|
|0-8-8-7-8-7-7-0-3-3-0-3-3-8-8-7-8-7-7-|-0-0-0-----------5-3|

ending
|------------------|
|------------------|
|------------------|
|-----5-----5------|
|-0-3-3-x-x-3-5-3--|
|-0-3---x-x---5-3--|