Crossfade - Colors Chords & Tabs

 

Colors Chords & Tabs

Crossfade Chords & Tabs

Version: 2 Type: Tab 0 ratings
1 star 2 stars 3 stars 4 stars 5 stars
comments

Colors Tab

   
		 COLORS - CROSSFADE
-------------------------------------------------------------------------------
Tabbed by: Brian Dillard
Email:GPlayer03@hotmail.com

Tuning:Drop D tuning

  INTRO

           Harmonics
e|----------------------<12>----|
B|------------------------------|
G|------------------------------|
D|-----<7>------<12>------------|
A|---------<7>-------<12>-------|
D|------------------------------|

e|------------------------------|--------------------------------------------|
B|------------------------------|--------------------------------------------|
G|--2-------------2-------------|--2-----2----------2------------------------|
D|----0-0---0-------0---------0-|----0----------------------------0----------|
A|--------1---0-------0-----4---|------1---0p1-0-------0----0---4------------|
D|-0------------3-------3-2-----|-0---------------3-------2---2--------------|
   VERSE

e|---------------------------------------------------------------------------|
B|---------------------------------------------------------------------------|
G|---2-------------2---0-----------2------------2----------------------------|
D|-----0---0-----------------0---0-----0------------0-------0----------------|
A|-------1---1-0---------0-4---------1---0p1-0--------0-3\4------------------|
D|-0-------------3---2---------0---------------3--2--------------------------|

e|---------------------------------------------------------------------------|
B|---------------------------------------------------------------------------|
G|---2-------2------2-0---------------2---------2------2---------------------|
D|-----0---0---0-----------------0------0---0-----0----------------0---------|
A|-------1-------0---------0---4----------1---1--------------0---4-----------|
D|-0---------------3-----2---2------0----------------3-----2---2-------------|
[ Tab from: http://www.guitartabs.cc/tabs/c/crossfade/colors_tab_ver_2.html ]
e|---------------------------------------------------------------------------|
B|---------------------------------------------------------------------------|
G|---2-------2------2---------------2-----2-----------2----------------------|
D|-----0---0---0------0----0----------0-----0------------0-------------------|
A|-------1-------0-----------0-4--------1-----0-1p0--------------------------|
D|-0---------------3----2---------0-----------------3------------------------|

  CHORUS

e|------------------------------|
B|------------------------------|
G|------------------------------|
D|-0-0-0-3-3-3-3-10-10-10-5-5-3-|
A|-0-0-0-3-3-3-3-10-10-10-5-5-3-|
D|-0-0-0-3-3-3-3-10-10-10-5-5-3-|

  Back to Intro

e|--------------------------------------|------------------------------------|
B|--------------------------------------|------------------------------------|
G|--------------------------------------|------------------------------------|
D|0-------8-----------------------------|-0-0-0-7-5-----5--------------------|
A|0-8-8-7-8-7-7-0-3-3-0-3-3-8-8-7-8-7-7-|-0-0-0-5-3-x-x-3-5-3----------------|
D|0-8-8-7-8-7-7-0-3-3-0-3-3-8-8-7-8-7-7-|-0-0-0-----------5-3----------------|

Repeat till end

e|------------------|--------------------------------------------------------|
B|------------------|--------------------------------------------------------|
G|------------------|--------------------------------------------------------|
D|-----5-----5------|--------------------------------------------------------|
A|-0-3-3-x-x-3-5-3--|--------------------------------------------------------|
D|-0-3---x-x---5-3--|--------------------------------------------------------|


| /  slide up
| \  slide down
| h  hammer-on
| p  pull-off
| ~  vibrato
| +  harmonic
| x  Mute note
| b  bend note
| <> Harmonics
===============================================================================
Comments