Crossfade - Colors Chords & Tabs

 

Colors Chords & Tabs

Crossfade Chords & Tabs

Version: 1 Type: Tab 0 ratings
1 star 2 stars 3 stars 4 stars 5 stars
comments

Colors Tab

Artist: Crossfade
Song: Colors
Tabbed by: Balcescu Florin aka DEX
Email: eudexter2001@yahoo.com


*This song is great! I couldn't find the tab on the ent so I tabbed it today 16.09.2004
*Hope you enjoy it! It sounds 90% right as far as I think but feel free to e-mail me
*for corrections or sugestions


Drop D tunning

N.H = Natural Harmonic (just slightly put the finger over the chord without pushing)
p.m = Palm Muting
/   = Slide

[Intro/Verse]:
     <---N.H-------->
e|-----------------12-|-----------------------------------|--repeat 8th times
B|--------------------|-----------------------------------|--with small variations. 
G|--------------------|----7-----------------7------------|-- 
D|---7---------12-----|--------------------7--------------|--3rd time starts verse:
A|------7--12---------|------5-----5--------------------5-|--
D|--------------------|--0-------7---7---6------6-6-5-6---|--

Can you feel it crush you does it seem to bring the worst in you out
There's no running away from these things that hold you down
Do they complicate you because they make you feel like this
of all the colors that you've shine this is surely not your best
But you should know these colors that you're shining are

SURELY NOT THE 
[ Tab from: http://www.guitartabs.cc/tabs/c/crossfade/colors_tab.html ]
[Chorus]:
e|----------------------------------------------------------------|
B|----------------------------------------------------------------|
G|----------3--3---5--5---------------------3--3---5--5-----------|
D|---0--0---3--3---5--5---5--5-------0--0---3--3---5--5---5--5----|
A|---0--0---1--1---3--3---5--5-------0--0---1--1---3--3---5--5----|
D|---0--0-----------------5--5-------0--0-----------------5--5----|
  Beeeesssssssttttttttt   Colors that youuuu shineeeeee

[Verse 2] (same as verse 1)

I know you feel alone yeah and no one else can figure you out
But don't you ever turn away from the ones that help you down
Well they'd love to save you don't you know they love to see you smile
But these colors that you've shined are surely not your style
But you should know these colors that you're shining are
[Chorus]

[Bridge]:
             p.m          p.m 
e|-------------------------------------------------|
B|-------------------------------------------------|
G|-----------5-5-5-5-3--------------5-5-5-5-5-3----|
D|---0--0----5-5-5-5-3--1/3-3-3-3---5-5-5-5-5-3----|
A|---0--0----3-3-3-3-1--1/3-3-3-3---3-3-3-3-3-1----|
D|---0--0---------------1/3-3-3-3------------------|

I know you're feeling like you're lost you've drifted way to far
But you should know these colors you're shinig are surely not the best


Listen carefully the song in order to get it right. Enjoy playing!
Comments