Crossfade - Colors Chords & Tabs

 

Colors Chords & Tabs

Crossfade Chords & Tabs

Version: 1 Type: Bass Tab 0 ratings
1 star 2 stars 3 stars 4 stars 5 stars
comments

Colors Bass Tab

crossfade
colors
tabbed by saturns_bassman


Come In At 1st Chorus
G--------------------------------------------|
D-------------------------------------------*|
A--------------------------------------------|
E----------1--1-1--1--1-1-------------------*|
B--3--3---------------------1--1--1--1-1-1---|
[ Tab from: http://www.guitartabs.cc/tabs/c/crossfade/colors_btab.html ]
Verse
G---------------------|
D-----------8-7-5----*|
A--5---8-7--------8---|
E--------------------*|
B---------------------|

Bridge
G----------------------------|---------------------|
D----------------------------|---------------------|
A----------------------------|---------------------|
E------------3-3--6-6--5-5---|---------------------|
B--3-3--6-6------------------|--3--1~--1---3~--3---|
Comments