Crossfade - Cold Chords & Tabs

 

Cold Chords & Tabs

Crossfade Chords & Tabs

Version: 8 Type: Tab 0 ratings
1 star 2 stars 3 stars 4 stars 5 stars
comments

Cold Tab

Cold by Crossfade- this is absolutely correct, I have no doubt
Thanks to Chris Connors of the band Prima Volta


beginning part

e|--------------------------------------|
B|--------------------------------------|
G|--------------------------------------|
D|-0------0--------0---------0--10-----7|repeat
A|-0--pm--0--pm----0---pm----0--8---pm-7|
D|-0--0---0--0--0--0--0--0---0--8--8-8-7|
  
build up before chorus
e|--------|
B|--------|
G|--------|
D|-10-----|
A|-8------|strum repeatedly
D|-8------|
                                      
  Chorus
e|---------------------------------|
B|---------------------------------|
G|----------7--------5-------------|
D|-10-------7--------5--------3----|
A|-8--------5--------3--------3----|
D|-8--------------------------3----| you can figure out the strumming/rhythm
[ Tab from: http://www.guitartabs.cc/tabs/c/crossfade/cold_tab_ver_8.html ]
  Solo (wah pedal)
                                                 
e|--------------------------------------------------------|
B|----------10---------------------10---------------------|
G|------h-----------------------------12-10-12-9--10------|
D|---10-12-----12-10-12-10-----h---------------------12---|
A|--------------------------10-12-------------------------|
D|--------------------------------------------------------|

     solo continued (octaves)              (listen carefully-- fast!)
e|-----------------------------------------------------------|
B|---13-11-10-11-10-11-10-8--13--11-10----p-p-p--------------|
G|---x--x--x--x--x--x--x--x--x---x--x----5~3~2~0---p-p-p-----|
D|---10-8--7--8--7--8--7--5--10--8--7-------------5~3~2~0----|
A|--------------------------------------------------------3--|
D|-----------------------------------------------------------|


Just repeat the chorus and you are done!
Comments