Crossfade - Cold Chords & Tabs

 

Cold Chords & Tabs

Crossfade Chords & Tabs

Version: 6 Type: Tab 0 ratings
1 star 2 stars 3 stars 4 stars 5 stars
comments

Cold Tab

   
This is the whole song but i dont have the solo. The song is really easy and it is
most of the same chords but o well.Any comments email me at morjones@woh.rr.com

Drop D Tuning

.:palm mute
h:hammer
p:pull off
/:slide up
\:slide down

Intro:
[----------------------------------------------------]
[----------------------------------------------------]
[-------------------------4/5----5\4-----------------]Play 4 times
[-2-2222-2-2222-2-2222----4/5----5\4-----------------]
[-2-2222-2-2222-2-2222----2/3----3\2-----------------]
[-2-2222-2-2222-2-2222-------------------------------]
    ....   ....   ....

Chorus:
[----------------------------------------------------]
[----------------------------------------------------]
[-------4/55555555-999999-77777----------------------]Play 4 times
[-22222-2/33333333-999999-77777----------------------]
[-22222-2/33333333-777777-55555----------------------]
[-22222----------------------------------------------]

Verse 1:
[----------------------------------------------------]
[----------------------------------------------------]
[-------------------------4/5----5\4-----------------]Play 4 times
[-2-2222-2-2222-2-2222----4/5----5\4-----------------]
[-2-2222-2-2222-2-2222----2/3----3\2-----------------]
[-2-2222-2-2222-2-2222-------------------------------]
    ....   ....   ....
[ Tab from: http://www.guitartabs.cc/tabs/c/crossfade/cold_tab_ver_6.html ]
Chorus:
[----------------------------------------------------]
[----------------------------------------------------]
[-------4/55555555-999999-77777----------------------]Play 4 times
[-22222-2/33333333-999999-77777----------------------]
[-22222-2/33333333-777777-55555----------------------]
[-22222----------------------------------------------]

Acoustic Part:
[----------------------------------------------------]
[----------------------------------------------------]
[-------4/55555555-999999-77777----------------------]
[-22222-2/33333333-999999-77777----------------------]
[-22222-2/33333333-777777-55555----------------------]
[-22222----------------------------------------------]

Verse 2:
[----------------------------------------------------]
[----------------------------------------------------]
[-------4/55555555-999999-77777----------------------]Play 4 times
[-22222-2/33333333-999999-77777----------------------]
[-22222-2/33333333-777777-55555----------------------]
[-22222----------------------------------------------]

Chorus:
[----------------------------------------------------]
[----------------------------------------------------]
[-------4/55555555-999999-77777----------------------]Play 4 times
[-22222-2/33333333-999999-77777----------------------]
[-22222-2/33333333-777777-55555----------------------]
[-22222----------------------------------------------]
Comments