Crossfade - Cold Chords & Tabs

 

Cold Chords & Tabs

Crossfade Chords & Tabs

Version: 3 Type: Tab 0 ratings
1 star 2 stars 3 stars 4 stars 5 stars
comments

Cold Tab

   
----------------------------------------------------------------------------
			     Crossfade - Cold
----------------------------------------------------------------------------
Tabbed by: bswole2254
Email: bswole2254@yahoo.com

Tuning: Standard

Verse: listen for strumming pattern

e|-------------------------------------------------------------------------|
B|-------------------------------------------------------------------------|
G|-7--7-----3--3-------2---------------------------------------------------|
D|-7--7-----3--3-------2-----------(3 times)-------------------------------|
A|-5--5-----1--1-------0---------------------------------------------------|
E|-------------------------------------------------------------------------|

e|-------------------------------------------------------------------------|
B|-------------------------------------------------------------------------|
G|-7--7--------3--3--3--3--------------------------------------------------|
D|-7--7--------3--3--3--3--------------------------------------------------|
A|-5--5--------1--1--1--1--------------------------------------------------|
E|-------------------------------------------------------------------------|

Chorus: 
[ Tab from: http://www.guitartabs.cc/tabs/c/crossfade/cold_tab_ver_3.html ]
e|-------------------------------------------------------------------------|
B|-------------------------------------------------------------------------|
G|-3--3-----7--7-----5--5--------------------------------------------------|
D|-3--3-----7--7-----5--5-----3--------------------------------------------|
A|-1--1-----5--5-----3--3-----3--------------------------------------------|
E|----------------------------1--------------------------------------------|

Acoustic: same as chorus, a little bit different strumming

e|-------------------------------------------------------------------------|
B|-------------------------------------------------------------------------|
G|-3--3-----7--7-----5--5--------------------------------------------------|
D|-3--3-----7--7-----5--5-----3--------------------------------------------|
A|-1--1-----5--5-----3--3-----3--------------------------------------------|
E|----------------------------1--------------------------------------------|

Solo:

e|-------------------------------------------------------------------------|
B|----10-8-6-8-6----10-8-6-8-5---5-5h6-7-3-1-------------------------------|
G|5-7------------5-7-------------------------2-2-3-2-3-0-3-3-5-3-5-5-------|
D|-------------------------------------------------------------------------|
A|-------------------------------------------------------------------------|
E|-------------------------------------------------------------------------|

The other two tabs were good, just a little off, I changed a couple of things and
I think this version sounds pretty accurate, let me know what yall think. This is
an awesome song.


| /  slide up
| \  slide down
| h  hammer-on
| p  pull-off
| ~  vibrato
| +  harmonic
| x  Mute note
============================================================================
Comments