Crossfade - Cold Chords & Tabs

 

Cold Chords & Tabs

Crossfade Chords & Tabs

Version: 1 Type: Tab 0 ratings
1 star 2 stars 3 stars 4 stars 5 stars
comments

Cold Tab

   
----------------------------------------------------------------------------
			    Crossfade - Cold
                    Off the Self Titled Album Crossfade
                       http://www.crossfadeband.com/
----------------------------------------------------------------------------
Tabbed by: misguid3d
Email: misguided_guitarist@hotmail.com

Tuning: Dropped D (DADGBE)

"looking back at me..."
Those are the chords.. Listen to the song to find out the pattern.

e|--0---0------------------------------------------------------------------|
B|--2---2------------------------------------------------------------------|
G|--3---3-----------3---3-----------2--------------------------------------|
D|--0---0-----------3---3-----------2--------------------------------------|
A|--0---0-----------1---1-----------0--------------------------------------|
D|--0---0------------------------------------------------------------------|

Chorus
"what i really meant to say..."
Again.. right chords.. listen to figure out pattern..
[ Tab from: http://www.guitartabs.cc/tabs/c/crossfade/cold_tab.html ]
e|-----------0--0------------------------------------------------------------|
B|-----------3--3------------------------------------------------------------|
G|--3--3-----2--2--------5--5------------------------------------------------|
D|--3--3-----0--0------- 5--5-------3----------------------------------------|
A|--1--1-----0--0-------3--3-------3-----------------------------------------|
D|-----------0--0-------------------3----------------------------------------|

Acoustic part
Again.. right chords.. listen to song for pattern...
e|-------------------------------------------------------------------------|
B|----------------3--------------------------------------------------------|
G|-------10-------2---------5----------------------------------------------|
D|---/---8--------0---------5---------3------------------------------------|
A|---/---8--------0---------3---------3------------------------------------|
D|---/---8--------0-------------------3------------------------------------|

Solo
e|---------------------------|---------------------------------------------|
B|------------10-8-----------|-----------10-8------------------------------|
G|---------10------10----10--|--------10------10-12-9----------------------|
D|---10h12------------12-----|--10h12--------------------------------------|
A|---------------------------|---------------------------------------------|
E|---------------------------|---------------------------------------------|

Solo isn't totally complete yet... but the last little part u can play around with that 
scale... it's easy to figure out.

Any comments or corrections feel free to e-mail me.

P.S. If anyone else has any Crossfade tabs.. feel free to share.. they're an aweoms band!


| /  slide up
| \  slide down
| h  hammer-on
| p  pull-off
| ~  vibrato
| +  harmonic
| x  Mute note
===============================================================================
Comments