Crossfade - Cold (acoustic) Chords & Tabs

 

Cold (acoustic) Chords & Tabs

Crossfade Chords & Tabs

Version: 2 Type: Tab 0 ratings
1 star 2 stars 3 stars 4 stars 5 stars
comments

Cold (acoustic) Tab

I was tired of all the incorrect versions of this song - This is almost 100% correct.
No solo yet-it's very similar to the original though.  Listen to the song to get the
strumming down and to hear how long to hold the notes.  - Big B    

Tuning:(Drop "D" full step down)CGCFad

Intro:
d|-2---2-2-2---------------2---2-2-2------------------------------|
a|-2h3-2-2-2--3~~~--------2h3-2-2-2---3~~~-----------------------|
F|-4---4-4-4--2~~~--------4---4-4-4---2~~~-----------------------|
C|-4---4-4-4---------4-4---4---4-4-4------------------------------|
G|-2---2-2-2---------4-4---2---2-2-2------------------------------|
C|-------------5~~~--4-4---------------5~~~-----------------------|

Verse 1:
  Looking back at me I see that I never really got it right! 
d|-------------------2---2---2---2---2---2---2--------------------|
a|-------------------2h3-2---2---2---2---2---2---------3-3-3------|
F|-------------------4---4---4---4---4---4---4---------2-2-2------|
C|-------------------4---4---4---4---4---4---4--------------------|
G|-------------------2---2---2---2---2---2---2--------------------|
C|-----------------------------------------------------5-5-5------|

  I never stopped to think of you!
d|----------------------------------------------------------------|
a|---3-3----------------------------------------------------------|
F|---2-2----------------------------------------------------------|
C|-----------------------------4----------------------------------|
G|-----------------------------4----------------------------------|
C|---5-5-----------------------4----------------------------------|

  I'm always wrapped up in things I cannot win.
d|-----------2---2---2---2---2---2---2----------------------------|
a|-----------2h3-2---2---2---2---2---2------3-3-3-----------------|
F|-----------4---4---4---4---4---4---4------2-2-2-----------------|
C|-----------4---4---4---4---4---4---4-----------------44---------|
G|-----------2---2---2---2---2---2---2-----------------44---------|
C|------------------------------------------5-5-5------44---------|

  You are the antidote that gets me by, something strong like a drug 
d|--2---2---2---2---2---2---2-------------------------------------|
a|--2h3-2---2---2---2---2---2----------3--3--3--3--3--3--3--3--3--|
F|--4---4---4---4---4---4---4----------2--2--2--2--2--2--2--2--2--|
C|--4---4---4---4---4---4---4-------------------------------------|
G|--2---2---2---2---2---2---2-------------------------------------|
C|-------------------------------------5--5--5--5--5--5--5--5--5--|

      that gets me . . . 
d|---------------------------------------------------------------|
a|--3---3---3---3------------------------------------------------|
F|--2---2---2---2------------------------------------------------|
C|---------------------------------------------------------------|
G|---------------------------------------------------------------|
C|--5---5---5---5------------------------------------------------|

      Hiiiiiiiiiiiiiiiigggggggggggggggggghhhhhhhhhhh!!!!!!
d|-2---2---2---2---2---------------------------------------------|
a|-2h3-2---2---2---2----3--3--3--3--3--3--3--3--3--3-------------|
F|-4---4---4---4---4----2--2--2--2--2--2--2--2--2--2-------------|
C|-4---4---4---4---4-----------------------------------------4---|
G|-2---2---2---2---2-----------------------------------------4---|
C|----------------------5--5--5--5--5--5--5--5--5--5---------4---|
			p.m
Chorus:
   What I really meant to say is I'm sorry for the way I am
d|-------------------2--2-2--------------------------------------|
a|--------3--3--3----2h32-2--------------------------------------|
F|--------2--2--2----4--4-4-----2---2---2---2---2---2---2--------|
C|-------------------4--4-4-----2---2---2---2---2---2---2--------|
G|-------------------2--2-2-----0---0---0---0---0---0---0--------|
C|--------5--5--5------------------------------------------------|

  I never meant to be so cold, I never meant to be so cold
d|--------------2--2-2-------------------------------------------|
a|---3--3--3----2h32-2-------------------------------------------|
F|---2--2--2----4--4-4-----2---2---2---2---2---2---2---2---2-----|
C|--------------4--4-4-----2---2---2---2---2---2---2---2---2-----|
G|--------------2--2-2-----0---0---0---0---0---0---0---0---0-----|
C|---5--5--5-----------------------------------------------------|

  What I really meant to say is I'm sorry for the way I am
d|-------------------2--2-2--------------------------------------|
a|--------3--3--3----2h32-2--------------------------------------|
F|--------2--2--2----4--4-4-----2---2---2---2---2---2---2--------|
C|-------------------4--4-4-----2---2---2---2---2---2---2--------|
G|-------------------2--2-2-----0---0---0---0---0---0---0--------|
C|--------5--5--5------------------------------------------------|

  I never meant to be so cold, I never meant to be so
d|--------------2--2-2-------------------------------------------|
a|---3--3--3----2h32-2-------------------------------------------|
F|---2--2--2----4--4-4-----2---2---2---2---2---2---22------------|
C|--------------4--4-4-----2---2---2---2---2---2---22------------|
G|--------------2--2-2-----0---0---0---0---0---0---00------------|
C|---5--5--5-----------------------------------------------------|

Verse 2:
  Cold! To you I'm sorry about all the lies.
d|-2---2---2---2---2---2---2-------------------------------------|
a|-2h3-2---2---2---2---2---2---------3~~~~-----------------------|
F|-4---4---4---4---4---4---4---------2~~~~-----------------------|
C|-4---4---4---4---4---4---4-------------------------------------|
G|-2---2---2---2---2---2---2-------------------------------------|
C|-----------------------------------5~~~~-----------------------|

   Maybe in a different light.
d|---------------------------------------------------------------|
a|---------------------------------------------------------------|
F|---------------------------------------------------------------|
C|--------------------------4------------------------------------|
G|--------------------------4------------------------------------|
C|--------------------------4------------------------------------|
  
  You could see me stand on my own again. Cause now I can see
d|-2---2---2---2---2---2---2-------------------------------------|
a|-2h3-2---2---2---2---2---2---------3--3--3--3--3--3------------|
F|-4---4---4---4---4---4---4---------2--2--2--2--2--2------------|
C|-4---4---4---4---4---4---4--------------------------------4----|
G|-2---2---2---2---2---2---2--------------------------------4----|
C|-----------------------------------5--5--5--5--5--5-------4----|

  You were the antidote that got me by, something strong like a drug
d|--2---2---2---2---2---2---2-------------------------------------|
a|--2h3-2---2---2---2---2---2----------3--3--3--3--3--3--3--3--3--|
F|--4---4---4---4---4---4---4----------2--2--2--2--2--2--2--2--2--|
C|--4---4---4---4---4---4---4-------------------------------------|
G|--2---2---2---2---2---2---2-------------------------------------|
C|-------------------------------------5--5--5--5--5--5--5--5--5--|
[ Tab from: http://www.guitartabs.cc/tabs/c/crossfade/cold_acoustic_tab_ver_2.html ]
      that got me....
d|---------------------------------------------------------------|
a|--3---3---3---3------------------------------------------------|
F|--2---2---2---2------------------------------------------------|
C|---------------------------------------------------------------|
G|---------------------------------------------------------------|
C|--5---5---5---5------------------------------------------------|
  
     Hiiiiiiiiiiiiiiiiiiggggggggggggggghhhhhhhhhhh!!!!!!
d|-2---2---2---2---2---------------------------------------------|
a|-2h3-2---2---2---2----3--3--3--3--3--3--3--3--3--3-------------|
F|-4---4---4---4---4----2--2--2--2--2--2--2--2--2--2-------------|
C|-4---4---4---4---4------------------------------------------4--|
G|-2---2---2---2---2------------------------------------------4--|
C|----------------------5--5--5--5--5--5--5--5--5--5----------4--|

			p.m
Chorus again

Bridge:
                              (never meant to be) 
d|---------------------------------------------------------------|
a|---------------------------------------------------------------|
F|---------------------------------------------------------------|
C|-5h7--7h9---11h12p11p9--9--7--7--7--7--7--7--7----------------|
G|-5----5------9-----9--9--7--7--7--7--7--7--7--7----------------|
C|-5----5------9-----9--9--7--7--7--7--7--7--7--7----------------|
  
        Sooooooooo   coold
d|---------------------------------------------------------------|
a|---------------------------------------------------------------|
F|---------------------------------------------------------------|
C|-5h7--7h9---11h12p11p9--9--7--7--7--7--7--7--7----------------|
G|-5----5------9-----9--9--7--7--7--7--7--7--7--7----------------|
C|-5----5------9-----9--9--7--7--7--7--7--7--7--7----------------|

Interlude: 
  Oooooooooooooooooooooooooooooooooooooooooooooooooooooooooh
d|-------------------2--2-2--------------------------------------|
a|--------3--3--3----2h32-2--------------------------------------|
F|--------2--2--2----4--4-4-----2---2---2---2---2---2---2--------|
C|-------------------4--4-4-----2---2---2---2---2---2---2--------|
G|-------------------2--2-2-----0---0---0---0---0---0---0--------|
C|--------5--5--5------------------------------------------------|

  Ooooooooooooooooooooooooooooooooh  aaaaaaaaaaaaaaahhhhhhh
d|-------------------2--2-2--------------------------------------|
a|--------3--3--3----2h32-2--------------------------------------|
F|--------2--2--2----4--4-4-----2---2---2---2---2---2---2--------|
C|-------------------4--4-4-----2---2---2---2---2---2---2--------|
G|-------------------2--2-2-----0---0---0---0---0---0---0--------|
C|--------5--5--5------------------------------------------------|
 
              I never really wanted you to see 
d|-------------------2--2-2--------------------------------------|
a|--------3--3--3----2h32-2--------------------------------------|
F|--------2--2--2----4--4-4-----------------2---2---2---2--------|
C|-------------------4--4-4-----------------2---2---2---2--------|
G|-------------------2--2-2-----------------0---0---0---0--------|
C|--------5--5--5------------------------------------------------|

  The screwed up side of me that I keep
d|---------------------------------------------------------------|
a|---------------------------------------------------------------|
F|-2---2---2---2---2---2---2---2---2-----------------------------|
C|-2---2---2---2---2---2---2---2---2-----------------------------|
G|-0---0---0---0---0---0---0---0---0-----------------------------|
C|---------------------------------------------------------------|

              Locked inside of me so deep
d|-------------------2--2-2--------------------------------------|
a|--------3--3--3----2h32-2--------------------------------------|
F|--------2--2--2----4--4-4-------------2---2---2---2---2--------|
C|-------------------4--4-4-------------2---2---2---2---2--------|
G|-------------------2--2-2-------------0---0---0---0---0--------|
C|--------5--5--5------------------------------------------------|

  It always seem to get to me
d|---------------------------------------------------------------|
a|---------------------------------------------------------------|
F|-2---2---2---2---2---2---2---2---2-----------------------------|
C|-2---2---2---2---2---2---2---2---2-----------------------------|
G|-0---0---0---0---0---0---0---0---0-----------------------------|
C|---------------------------------------------------------------|

               I never really  wanted you to go 
d|-------------------2--2-2--------------------------------------|
a|--------3--3--3----2h32-2--------------------------------------|
F|--------2--2--2----4--4-4-----------------2---2---2---2--------|
C|-------------------4--4-4-----------------2---2---2---2--------|
G|-------------------2--2-2-----------------0---0---0---0--------|
C|--------5--5--5------------------------------------------------|

  So many things you should have known
d|---------------------------------------------------------------|
a|---------------------------------------------------------------|
F|-2---2---2---2---2---2---2---2---2-----------------------------|
C|-2---2---2---2---2---2---2---2---2-----------------------------|
G|-0---0---0---0---0---0---0---0---0-----------------------------|
C|---------------------------------------------------------------|

               I guess for me there's just no hope.
d|-------------------2--2-2--------------------------------------|
a|--------3--3--3----2h32-2--------------------------------------|
F|--------2--2--2----4--4-4-----------------2---2---2---2--------|
C|-------------------4--4-4-----------------2---2---2---2--------|
G|-------------------2--2-2-----------------0---0---0---0--------|
C|--------5--5--5------------------------------------------------|

  I never meant to be so (fades into chorus)
d|---------------------------------------------------------------|
a|---------------------------------------------------------------|
F|-2---2---2---2---2---2---2---2---2-----------------------------|
C|-2---2---2---2---2---2---2---2---2-----------------------------|
G|-0---0---0---0---0---0---0---0---0-----------------------------|
C|---------------------------------------------------------------|

End Chorus:
What I really meant to saaaaay     is I'm sorry for the way 
d|-------------------2--2-2--------------------------------------|
a|--------3--3--3----2h32-2--------------------------------------|
F|--------2--2--2----4--4-4-----2---2---2---2---2---2---2--------|
C|-------------------4--4-4-----2---2---2---2---2---2---2--------|
G|-------------------2--2-2-----0---0---0---0---0---0---0--------|
C|--------5--5--5------------------------------------------------|

     I aaaaaaaammmmmmmmm
d|-------------2--2-2--------------------------------------------|
a|--3--3--3----2h32-2--------------------------------------------|
F|--2--2--2----4--4-4-----2---2---2---2---2---2---2--------------|
C|-------------4--4-4-----2---2---2---2---2---2---2--------------|
G|-------------2--2-2-----0---0---0---0---0---0---0--------------|
C|--5--5--5------------------------------------------------------|

  What I really meant to saaaaay     is I'm sorry for the way 
d|-------------------2--2-2--------------------------------------|
a|--------3--3--3----2h32-2--------------------------------------|
F|--------2--2--2----4--4-4-----2---2---2---2---2---2---2--------|
C|-------------------4--4-4-----2---2---2---2---2---2---2--------|
G|-------------------2--2-2-----0---0---0---0---0---0---0--------|
C|--------5--5--5------------------------------------------------|

  I aaaaaaaammmmmmmmm
d|-------------2--2-2--------------------------------------------|
a|--3--3--3----2h32-2--------------------------------------------|
F|--2--2--2----4--4-4-----2---2---2---2---2---2---2--------------|
C|-------------4--4-4-----2---2---2---2---2---2---2--------------|
G|-------------2--2-2-----0---0---0---0---0---0---0--------------|
C|--5--5--5------------------------------------------------------|
Comments