Cross Borns - A Vegzet Hegye Chords & Tabs

 

A Vegzet Hegye Chords & Tabs

Cross Borns Chords & Tabs

Version: 1 Type: Tab 0 ratings
1 star 2 stars 3 stars 4 stars 5 stars
comments

A Vegzet Hegye Tab

Band:Cross Borns 
Album:A gyrk ura
Song:A vgzet hegye

Tabbed by Adam Varga
All tune:EADGHE
/;\ - slide
h - hammer on


Intro: (rhytm)
E1--------------------------------------------
H---------------------------------------------
G---------------------------------------------
D----9--7--5--4-------------------------------
A----9--7--5--4-------------------------------
E6---7--5--3--2-------------------------------


Intro: (solo/a)
E1--------------------------------------------
H----7777x4--8-777--10-777--8-777-8-777-------
G---------------------------------------------
D---------------------------------------------
A---------------------------------------------
E6--------------------------------------------

E1--------------------------------------------
H----7777x4-8-777--10-777--/8-----------------
G---------------------------------------------
D---------------------------------------------
A---------------------------------------------
E6--------------------------------------------


Intro: (solo/b)
E1---17171717-15151515-14141414-15151515------
H-----------------------------------------15--
G---------------------------------------------
D---------------------------------------------
A---------------------------------------------
E6--------------------------------------------

E1---17171717-15151515-14141414-15151515--17171717-15151515--14----
H------------------------------------------------------------------
G------------------------------------------------------------------
D------------------------------------------------------------------
A------------------------------------------------------------------
E6-----------------------------------------------------------------

E1-17171717-15151515-14141414-15151515-----------------------------
H---------------------------------------15--15\14--14/15-----------
G------------------------------------------------------------------
D------------------------------------------------------------------
A------------------------------------------------------------------
E6-----------------------------------------------------------------

E1-17171717-15151515-14141414-15151515--------
H---------------------------------------15----
G---------------------------------------------
D---------------------------------------------
A---------------------------------------------
E6--------------------------------------------

E1---17171717-15151515-14141414-15151515--17171717-15151515--14----
H------------------------------------------------------------------
G------------------------------------------------------------------
D------------------------------------------------------------------
A------------------------------------------------------------------
E6-----------------------------------------------------------------
[ Tab from: http://www.guitartabs.cc/tabs/c/cross_borns/a_vegzet_hegye_tab.html ]
E1-17171717-15151515-14141414-15151515-----------------------------
H---------------------------------------15--15\14--14/15--15\12----
G------------------------------------------------------------------
D------------------------------------------------------------------
A------------------------------------------------------------------
E6-----------------------------------------------------------------


Riff1:
E1---------------------------------------------------------------------------
H----------------------------------------------------------------------------
G----------------------------------------------------------------------------
D----8--8-10-8-10-8-10--8--8-10-8-10-10-8--8--8--8-10-8-10-8-10-10/12-12-10-8
A----8------------------8------------------8---------------------------------
E6---8------------------8------------------8---------------------------------


Riff2:
E1--------------------------------------------
H---------------------------------------------
G---------------------------------------------
D----9--5--4----------------------------------
A----9--5--4----------------------------------
E6---7--3--2----------------------------------
(Fradt vagyok ,nincs erm...)

Riff3: (rhytm)
E1-----------------------------------------------------------------
H------------------------------------------------------------------
G------------------------------------------------------------------
D----5--3---5-5--5-5--5-5--5-5---3-3--3-3--2-2--2-2----------------
A----5--3---5-5--5-5--5-5--5-5---3-3--3-3--2-2--2-2----------------
E6---3--1---3-3--3-3--3-3--3-3---1-1--1-1--0-0--0-0----------------


Riff3: (solo)
E1------------------------------------------
H----7-5-3-2-3-/7-5-3-2-3-/5-3-2-0-2h3-2----
G-------------------------------------------
D-------------------------------------------
A-------------------------------------------
E6------------------------------------------


Outro: (rhytm)
E1------------------------------------------
H-------------------------------------------
G-------------------------------------------
D----4--6--7--9-----------------------------
A----4--6--7--9-----------------------------
E6---2--4--5--7-----------------------------


Outro: (solo/a)
E1------------------------------------------
H----7-10-8-7-8-7-10-8-7-8-7-10-8-7-8-7--8--
G-------------------------------------------
D-------------------------------------------
A-------------------------------------------
E6------------------------------------------


Outro: (solo/b)
E1---/9-7-10-9--12-10-14-12--7-10-9-12--10-9-10-9-7-9-10-9---------
H------------------------------------------------------------------
G------------------------------------------------------------------
D------------------------------------------------------------------
A------------------------------------------------------------------
E6-----------------------------------------------------------------

E1---/9-7-10-9--12-10-14-12--10-9-10/12-10-9-7/9--10-9-7-9-10\9----
H------------------------------------------------------------------
G------------------------------------------------------------------
D------------------------------------------------------------------
A------------------------------------------------------------------
E6-----------------------------------------------------------------
Comments