Crosby Stills Nash And Young - Woodstock Chords & Tabs

 

Woodstock Chords & Tabs

Crosby Stills Nash And Young Chords & Tabs

Version: 1 Type: Tab 0 ratings
1 star 2 stars 3 stars 4 stars 5 stars
comments

Woodstock Tab

-------------------------------------------------------------------------------
			     Woodstock - crosby,stills,nash,and young
------------------------------------------------------------------------------
Tabbed by: chris
Email: voodoochild1787@yahoo.com
[ Tab from: http://www.guitartabs.cc/tabs/c/crosby_stills_nash_and_young/woodstock_tab.html ]
Intro:
e|--------------------------------------------------------------------|
B|--------------------------------------------------------------------|
G|----------7----------------------------------------------9----------|
D|----------7-----------9---99-----7b-9/10/11b11b-9--------9----------|
A|-9--7--9----7h9-9-9-7-9-7-99-7-9------------------9-7-7-----7--7----|
E|--------------------------------------------------------------------|


e|------------------------9-------------7------9--------------------|
B|-9---9-9b------9-9b-----9-------------7-9------7------------------|
G|-9--------7/9-------7/9---7/9-5/7-7h9------------9--7---7---------|
D|----------------------------------------------------7---7---------|
A|---7--------------------------------------------------9---9-------|
E|------------------------------------------------------------------|


thats all i have so far
Comments