Crosby Stills Nash And Young - Our House Chords & Tabs

 

Our House Chords & Tabs

Crosby Stills Nash And Young Chords & Tabs

Version: 2 Type: Bass Tab 0 ratings
1 star 2 stars 3 stars 4 stars 5 stars
comments

Our House Bass Tab

   
"Our House" - by Crosby, Stills, Nash & Young
Words and music by Graham Nash
>From the album "Deja Vu" (1970)
                       
Tabbed by Evan Chung (Babalu2@aol.com)

A slow, simple, but nice song -

             w   19x w     w     w     w     w     w     h  h     w     
G-------||---r---||-----|-----|-----|-----|-----|-----|-----2--|--------
D---4:--||*--e--*||-----|-----|-----|-----|-----|-----|--------|--------
A---4:--||*--s--*||-----|-----|-----|-----|--5--|--3--|--------|--------
E-------||---t---||--5--|--4--|--2--|--0--|-----|-----|--5-----|--4-----
                                                                        

       w     w     w     w     w     h  h     w     w     w     w       
G---|-----|-----|-----|-----|-----|--------|-----|-----|-----|-----|----
D---|-----|-----|-----|-----|-----|--4-----|-----|-----|-----|-----|----
A---|-----|-----|--5--|--4--|--2--|--------|-----|-----|-----|-----|----
E---|--2--|--0--|-----|-----|-----|-----0--|--5--|--4--|--2--|--0--|----
                                                                        

    w     w     h  h     h  h     h  h     h  h     w     w     w       
G------|-----|--------|--------|--------|--------|-----|-----|-----|----
D------|-----|--------|--------|--------|--------|-----|-----|-----|----
A---5--|--4--|--2--4--|-----4--|--2--4--|-----4--|-----|-----|-----|----
E------|-----|--------|--0-----|--------|--0-----|--5--|--4--|--2--|----
                                                                        

    w     w     w     h  h     w     w     w     w     w     w     w    
G------|-----|-----|-----2--|--1--|-----|-----|-----|-----|-----|-------
D------|-----|-----|--------|-----|--4--|--2--|-----|-----|-----|-------
A------|--5--|--3--|--------|-----|-----|-----|--5--|--4--|--5--|--4----
E---0--|-----|-----|--5-----|-----|-----|-----|-----|-----|-----|-------
                                                                        

       w     w     h  h     h  h     w     w     w     w     w     w       
G---|-----|-----|--------|--------|-----|-----|-----|-----|-----|-----|----
D---|-----|-----|--------|--------|-----|-----|-----|-----|-----|-----|----
A---|--5--|--4--|--5--5--|--5-----|--2--|--5--|-----|-----|-----|-----|----

E---|-----|-----|--------|-----5--|-----|-----|--5--|--4--|--2--|--0--|----
                                                                        
[ Tab from: http://www.guitartabs.cc/tabs/c/crosby_stills_nash_and_young/our_house_btab_ver_2.html ]
    w     w     w     h  h     w     w     w     w     w     w     h    
G------|-----|-----|--------|-----|-----|-----|-----|-----|-----|-------
D------|-----|-----|--4-----|-----|-----|-----|-----|-----|-----|-------
A---5--|--4--|--2--|--------|-----|-----|-----|-----|--5--|--3--|-------
E------|-----|-----|-----0--|--5--|--4--|--2--|--0--|-----|-----|--5----
                                                                        

    h     w     w     w     w     w     w     w     w     w     h  h    
G---2--|--1--|-----|-----|-----|-----|-----|-----|-----|-----|----------
D------|-----|--4--|--2--|-----|-----|-----|-----|-----|-----|----------
A------|-----|-----|-----|--5--|--4--|--5--|--4--|--5--|--4--|--5--5----
E------|-----|-----|-----|-----|-----|-----|-----|-----|-----|----------
                                                                        

    h  h     w     w     w          w   7x                              
G---------|-----|-----|--2--||---r---||------------------------------
D---------|-----|-----|-----||*--e--*||------------------------------
A---5-----|--2--|--5--|-----||*--s--*||------------------------------
E------5--|-----|-----|-----||---t---||------------------------------
                                                           


========================================================================
==                       TABLATURE EXPLANATION                        ==
========================================================================

----------                ----------                ----t---
----5h8--- Hammeron       ----(8)--- Ghost          ----6--- Tap
----------                ---------- Note           --------
----5p8--- Pulloff        ----------                --------

----------                ----------                -----p--
----5/8--- Slide Up       -----x---- Dead           -----7-- Pop
----------                ---------- Note           --s-----
----5\8--- Slide Down     ----------                --5----- Slap 

----------                ||------|| Repeat         --------
----5~~~-- Vibrato        ||*----*||                ---5^--- Bend
----------                ||*----*||                --------
----------                ||------||                --------

----------                ----------                --------
-4:------- Time           ----------                --------
-4:------- Signature      ----------                --------
----------                ----------                --------

Rhythm:
  w = whole note            W = dotted whole
  h = half note             H = dotted half
  q = quarter note          Q = dotted quarter
  e = eighth note           E = dotted eighth
  s = sixteenth note        S = dotted sixteenth
  t = 32nd note             T = dotted 32nd
  x = 64th note             X = dotted 64th
  ^ = triplet

========================================================================
==            Created with a demo version of BUCKET O' TAB            ==
==              tablature creation software for Windows               ==
==                  For more info email gse@his.com                   ==
========================================================================
Comments