Crosby Stills Nash And Young - Guinnevere Chords & Tabs

 

Guinnevere Chords & Tabs

Crosby Stills Nash And Young Chords & Tabs

Version: 1 Type: Tab 0 ratings
1 star 2 stars 3 stars 4 stars 5 stars
comments

Guinnevere Tab

   
#-----------------------------PLEASE NOTE-------------------------------------#
#This  file is the author's own work and represents their interpretation  #
#of the song. You may only use this file for private study, scholarship, or   #
#research. Remember to view this file in Courier, or other monospaced font.   #
#See http://www.olga.net/faq/ for more information.                           #
#-----------------------------------------------------------------------------#

Subject: c/crosby_stills_nash_and_young/guinnevere.tab

Guinnevere (Crosby, Stills & Nash)
==================================

Transcription by Charles Pecheur .

This is a beautiful ballad found on the CSNY (compilation) album "So
Far". It uses an unusual open tuning EBDGAD (Thanks to Harlan L
Thompson  for providing it on OLGA). I
prefer to play it with a thumb pick to strengthen the bass line. The
transcription has been done entirely by listening to the record. The
original version features two guitars (and sounds like four), but this
reproduces it fairly accurately. Judge by yourself and let me know of
any corrections or improvements.

 Tuning: E B D G A D

 Structure: 
   intro
   1st verse
   2nd verse
   bridge
   3rd verse
   intro
   fade out on beginning of verse

INTRO
(4/4)
--0-----------0-----------0-----|-0-----------0-----------0-----|
------0-----------0-----------0-|-----0-----------0-----------0-|
----------0-----------0---------|---------0-----------0---------|
--------------4-----------6-----|-------------4-----------6-----|
--------------------------------|-------------------------------|
--0-----------------------------|-0-----------------------------|


--0-----------0-----------0-----|-0-----------0-----------0-----|
------0-----------0-----------0-|-----0-----------0-----------0-|
----------0-----------0---------|---------0-----------0---------|
--------------4-----------6-----|-------------4-----------6-----|
--------------------------------|-------------------------------|
--0-----------------------------|-0-----------------------------|


--0-----------0-----------0-----|-0-----------0-----------------|
------5-----------5-----------5-|-----7-----------5-------5-----|
----------6-----------6---------|---------6-----------6-------6-|
--------------7-----------7-----|-------------7-----------7-----|
--0-----------------------------|-0-----------------------------|
--------------------------------|-------------------------------|


--------------0-----------0-----|-----0-----------0-------------|
------------------0-----------0-|---------0-----------0---------|
------6 \ 4-----------4---------|-------------4---------------4-|
------7 \ 5---------------5-----|-------------------------5-----|
--0-----------------------------|-0-----------------------------|
--------------------------------|-------------------------------|


--0-----------0-----------0-----|-----0-----------0-------------|
------0-----------0-----------0-|---------0-----------0---------|
----------4-----------4---------|-------------4---------------4-|
--------------4-----------4-----|-------------------------4-----|
--0-----------------------------|-0-----------------------------|
--------------------------------|-------------------------------|


--0-----------0-----------0-----|-----0-----------0-------------|
------0-----------0-----------0-|---------0-----------0---------|
----------2-----------2---------|-------------2---------------2-|
--------------2-----------2-----|-------------------------2-----|
--0-----------------------------|-0-----------------------------|
--------------------------------|-------------------------------|


VERSE

--0-----------0-----------0-----|-0-----------0-----------0-----|
------0-----------0-----------0-|-----0-----------0-----------0-|
----------0-----------0---------|---------0-----------0---------|
--------------------------0 h 2-|-------------------------0 h 2-|
--------------2-----------------|-------------2-----------------|
--0-----------------------------|-0-----------------------------|


--0-----------0-----------0-----|-0-----------0-----------0-----|
------0-----------0-----------0-|-----0-----------0-----------0-|
----------0-----------0---------|---------0-----------0---------|
--------------------------0 h 2-|-------------------------0 h 2-|
--------------2-----------------|-------------2-----------------|
--0-----------------------------|-0-----------------------------|


--0-----------0-----------0-----|-0-----------0-----------0-----|
------0-----------0-----------0-|-----0-----------0-----------0-|
----------0-----------0---------|---------0-----------0---------|
--------------------------0 h 2-|-------------------------0 h 2-|
--------------2-----------------|-------------2-----------------|
--0-----------------------------|-0-----------------------------|
      Guinnevere                               
   
      

--0-----------0-----------0-----|-0-----------0-----------0-----|
------0-----------0-----------0-|-----0-----------0-----------0-|
----------0-----------0---------|---------0-----------0---------|
--------------------------0 h 2-|-------------------------0 h 2-|
--------------2-----------------|-------------2-----------------|
--0-----------------------------|-0-----------------------------|
                                  
                                       
                            

--0-----------0-----------0-----|-0-----------0-----------0-----|
------0-----------0-----------0-|-----0-----------0-----------0-|
----------0-----------0---------|---------0-----------0---------|
--------------------------0 h 2-|-------------------------0 h 2-|
--------------2-----------------|-------------2-----------------|
--0-----------------------------|-0-----------------------------|
                            
        
        
[ Tab from: http://www.guitartabs.cc/tabs/c/crosby_stills_nash_and_young/guinnevere_tab.html ]
--0-----------0-----------0-----|-0-----------0-----------0-----|
------0-----------0-----------0-|-----0-----------0-----------0-|
----------0-----------0---------|---------0-----------0---------|
--------------------------0 h 2-|-------------------------0 h 2-|
--------------2-----------------|-------------2-----------------|
--0-----------------------------|-0-----------------------------|
  
  
   

--3-----------5-----------3-----|-3-----------3-----------3-----|
------3-----------3-----------3-|-----3-----------3-----------3-|
----------3-----------3---------|---------3-----------3---------|
--------------5-----------5-----|-------------3-----------3-----|
--------------------------------|-------------------------------|
--3-----------------------------|-3-----------------------------|
                 
                 
            

--2-----------2-----------2-----|-0-----------0-----------0-----|
------3-----------3-----------3-|-----3-----------3-----------3-|
----------3-----------3---------|---------3-----------3---------|
--------------2-----------2-----|-------------0-----------0-----|
--------------------------------|-------------------------------|
--3-----------------------------|-3-----------------------------|
  
 

--0-----------0-----------0-----|-0-----------0-----------0-----|
------0-----------0-----------0-|-----0-----------0-----------0-|
----------0-----------0---------|---------0-----------0---------|
--------------------------0 h 2-|-------------------------0 h 2-|
--------------2-----------------|-------------2-----------------|
--0-----------------------------|-0-----------------------------|
  
  
  

(3/4)
--5-----------5---------|-3-----------3---------|
------3-----------3-----|-----3-----------3-----|
----------3-----------3-|---------3-----------3-|
--------------5---------|-------------3---------|
------------------------|-----------------------|
--3---------------------|-3---------------------|
   
 
  

--5-----------5---------|-3-----------3---------|
------3-----------3-----|-----3-----------3-----|
----------3-----------3-|---------3-----------3-|
--------------5---------|-------------3---------|
------------------------|-----------------------|
--3---------------------|-3---------------------|



(7/4)
--0-----------0-----------0-----------0-----------0-----|
------0-----------0-----------0-----------0-----------0-|
----------0-----------0-----------0-----------0---------|
--------------------------------------------------0-----|
--------------------------------------2-----------------|
--7-----------5-----------3-----------------------------|


--0-----------0-----------0-----------0-----------0-----|
------0-----------0-----------0-----------0-----------0-|
----------0-----------0-----------0-----------0---------|
--------------------------------------------------0-----|
--------------------------------------2-----------------|
--7-----------5-----------3-----------------------------|
                         
                          
                            

--0-----------0-----------0-----------0-----------0-----|-----|
------0-----------0-----------0-----------0-----------0-|-.12-|
----------0-----------0-----------0-----------0---------|-.12-|
--------------------------------------------------0-----|-.12-|
--------------------------------------2-----------------|-----|
--7-----------5-----------3-----------------------------|-----|
 
  


BRIDGE
(4/4)
--0-----------0-----------0-----|-0-----------0-----------0-----|
------0-----------0-----------0-|-----0-----------0-----------0-|
----------6-----------6---------|---------6-----------6---------|
--------------------------7-----|-------------------------7-----|
--------------7-----------------|-------------7-----------------|
--7-----------------------------|-7-----------------------------|


--0-----------0-----------0-----|-0-----------0-----------0-----|
------0-----------0-----------0-|-----0-----------0-----------0-|
----------6-----------6---------|---------6-----------6---------|
--------------------------7-----|-------------------------7-----|
--------------7-----------------|-------------7-----------------|
--7-----------------------------|-7-----------------------------|


--0-----------0-----------0-----|-0-----------0-----------0-----|
------0-----------0-----------0-|-----0-----------0-----------0-|
----------6-----------6---------|---------6-----------6---------|
--------------------------7-----|-------------------------7-----|
--------------7-----------------|-------------7-----------------|
--7-----------------------------|-7-----------------------------|
 

--0-----------0-----------0-----|-0-----------0-----------0-----|
------0-----------0-----------0-|-----0-----------0-----------0-|
----------4-----------4---------|---------4-----------4---------|
--------------------------5-----|-------------------------5-----|
--------------5-----------------|-------------5-----------------|
--5-----------------------------|-5-----------------------------|
  

--0-----------0-----------0-----|-0-----------0-----------0-----|
------0-----------0-----------0-|-----0-----------0-----------0-|
----------6-----------6---------|---------6-----------6---------|
--------------------------7-----|-------------------------7-----|
--------------7-----------------|-------------7-----------------|
--7-----------------------------|-7-----------------------------|
       

--0-----------0-----------0-----|-0-----------0-----------0-----|
------0-----------0-----------0-|-----0-----------0-----------0-|
----------0-----------0---------|---------0-----------0---------|
--------------------------0 h 2-|-------------------------0 h 2-|
--------------2-----------------|-------------2-----------------|
--0-----------------------------|-0-----------------------------|
                                 

--0-----------0-----------0-----|-0-----------0-----------0-----|
------0-----------0-----------0-|-----0-----------0-----------0-|
----------0-----------0---------|---------0-----------0---------|
--------------------------0 h 2-|-------------------------0 h 2-|
--------------2-----------------|-------------2-----------------|
--0-----------------------------|-0-----------------------------|
 
Comments