Crosby Stills Nash - The Lee Shore Chords & Tabs

 

The Lee Shore Chords & Tabs

Crosby Stills Nash Chords & Tabs

Version: 1 Type: Tab 0 ratings
1 star 2 stars 3 stars 4 stars 5 stars
comments

The Lee Shore Tab

   
#----------------------------------PLEASE NOTE---------------------------------#
#This file is the author's own work and represents their interpretation of the #
#song. You may only use this file for private study, scholarship, or research. #
#------------------------------------------------------------------------------##
 
Date: thursday, 30.12.2004
Tabbed by Peter Tuyp(peter.tuyp@wxs.nl)

Subject:
Crosby, Stills & Nash - The Lee Shore
 

Intro:
|-10-7-----------7--10--7----------------------------|
|--8-7--8-7h8p7--7---8--7----------------------------|
|-------9--------------------------------------------|
|----------------------------------------------------|
|----------------------------------------------------|
|----------------------------------------------------|

|-10----------------------7--------------------------|
|--8----------------------7--------------------------|
|----------------------------------------------------|
|----------------------------------------------------|
|----------------------------------------------------|
|----------------------------------------------------|
       Wheel...

|-----------------------0----------------------------|
|-8-------------8/10-10---10----10-------------------|
|-9-----------9-9/11---------11----------------------|
|----------------------------------------------------|
|----------------------------------------------------|
|----------------------------------------------------|
      
 
|--------------------------5-------------------------|
|--------12---10---8-----7-5-------------------------|
|--------12---11---9-----7-5-------------------------|
|----------------------------------------------------|
|----------------------------------------------------|
|----------------------------------------------------|
  

|--------------------------0-----0-------------------|
|------------------------3-----0---------------------|
|----------------------4-----2-----------------------|
|----------------------------------------------------|
|----------------------------------------------------|
|----------------------------------------------------

  Em7add9
|----------------------------------------------------|
|-------3-----------3-----------3-----------3--------|
|-----0-----0-----0-----0-----0-----0-----0-----0----|
|-2-------4---2-------4---2-------4---2-------4------|
|---2-----------2-----------2-----------2------------|
|-0-----------0-----------0-----------0--------------|

[ Tab from: http://www.guitartabs.cc/tabs/c/crosby_stills_nash/the_lee_shore_tab.html ]
Verses:
  Em7add9                 Cmaj7
|----------------------------------------------------|
|-------3-----------3-----------0-----------0--------|
|-----0-----0-----0-----0-----5-----5-----5-----5----|
|-2-4-----4---2-4-----4-----5-----5-----5-----5------|
|-------------------------3-----------0--------------|
|-0-----------0--------------------------------------|
1             All along the lee shore ...
2       
3         
4     
5    
6       
7             
        
  Em7add9                 Cmaj7       Amadd9
|----------------------------------------------------|
|-------3-----------3-----------0-----------0--------|
|-----0-----0-----0-----0-----5-----5-----5-----5----|
|-2-4-----4---2-4-----4-----5-----5-----5-----5------|
|-------------------------3-----------0--------------|
|-0-----------0--------------------------------------|
1            
2          
3       
4  
5
6      
7          

  Em7add9                 Cmaj7       Am/d
|----------------------------------------------------|
|-------3-----------3-----------0-----------5--------|
|-----0-----0-----0-----0-----5-----5-----5-----5----|
|-2-4-----4---2-4-----4-----5-----5-----0-----0------|
|-------------------------3-----------0--------------|
|-0-----------0--------------------------------------|
1             Winking up like shining eyes at ...
2              
3          
4         
5     
6                              
7      

  G           Gsus4       G
|----------------------------------------------------|
|-----0-----------1-----------0-----0-----0-----0----|
|-------0---0-------0---0---------0-----------0------|
|---0-----0-----0-----0-----0---0-------0---0--------|
|----------------------------------------------------|
|-3-----------3-----------3-----------3--------------|
1
2    
3 
4 
5 
6       
                                
  Emadd9      Gmaj7sus2   Emadd9      Gmaj7sus2   
|----------------------------------------------------|
|-------3-----------3-----------3-----------3--------|
|-----0-----0-----0-----0-----0-----0-----0-----0----|
|---4-----4-----4-----4-----4-----4-----4-----4------|
|-------------0-----------2-----------0--------------|
|-0--------------------------------------------------|
1 
2
3 
4 
5 
6 


Ending:  
  Gsus2                   F 
|-------------------------------------------------------------------------|
|-----0---3-------0---3-----------1-----------1-----------1-----------1---|
|-----------0-----------0-----2-----------2-----------2-----------2-------|
|---0-----------0-----------3-------3---3-------3---3-------3---3-------3-|
|-------------------------------------------------------------------------|
|-3-----------3-----------1-----------1-----------1-----------1-----------|
7 

  Em7add9     Gmaj7sus2   Em7add9     Gmaj7sus2        
|----------------------------------------------------|
|-------3-----------3-----------3-----------3--------|
|-----0-----0-----0-----0-----0-----0-----0-----0----|
|---4-----4-----4-----4-----4-----4-----4-----4------|
|-------------0-----------------------0--------------|
|-0-----------------------0--------------------------|
7 

  Em7add9     Gmaj7sus2   Em7add9     Gmaj7sus2   Em7add9
|----------------------------------------------------------------5---5-|
|-------3-----------3-----------3-----------3-----------------3------3-|
|-----0-----0-----0-----0-----0-----0-----0-----0----------0---------0-|
|---4-----4-----4-----4-----4-----4-----4-----4---------4------------4-|
|-------------0-----------------------0--------------2---------------2-|
|-0-----------------------0-----------------------0------------------0-|
Comments