Crocketts - The Beauty And The Beast Chords & Tabs

 

The Beauty And The Beast Chords & Tabs

Crocketts Chords & Tabs

Version: 1 Type: Tab 0 ratings
1 star 2 stars 3 stars 4 stars 5 stars
comments

The Beauty And The Beast Tab

   
#----------------------PLEASE NOTE-------------------------#
This file is the author's own work and represents their interpretation of the song. 
You may only use this file for private study, scholarship, or research.
#----------------------------------------------------------#

===================================
Artist: The Crocketts
Title: The Beauty & The Beast
Album: Nintendo Fallicy (EP)
Transcribed by: Rhys Jones
Email: rhysj2000@hotmail.com
===================================

A nice, easy track to play and is a cool, explosive start to your set.

===============
Tuning: Drop D
===============

	E
	B
	G
	D
	A
	D

This song demands two guitarists, otherwise the solo secion sounds empty. Also, use LOTS OF 
DISTORTION and nylon plectrums (you'll see why!). The way I play this, is by barring the 
three strings with the ring finger and using the index finger to quickly get to the second 
fret when needed. Try it, and enjoy!

============================================================
INTRO (x1)

E|-------------------------------------------------
B|-------------------------------------------------
G|-------------------------------------------------
D|-2h4-4--4-4--2-4-4--4-4--2-4-4--4-4--2-4-4--4-4--
A|-2h4-4--4-4--2-4-4--4-4--2-4-4--4-4--2-4-4--4-4--
D|-2h4-4--4-4--2-4-4--4-4--2-4-4--4-4--2-4-4--4-4--

   \==================Guitar One=================/

E|-------------------------------------------------
B|-------------------------------------------------
G|-------------------------------------------------
D|-2h4-4--4-4--2-4-4--4-4--2-4-4--4-4--2-4-4--4-4--
A|-2h4-4--4-4--2-4-4--4-4--2-4-4--4-4--2-4-4--4-4--
D|-2h4-4--4-4--2-4-4--4-4--2-4-4--4-4--2-4-4--4-4--

  \==================Guitar One &================/
  \===================Guitar Two=================/

This is a fast-ass intro (and song in general). 
So get those upstrokes goin' to increase your speed (hence the nylon).

============================================================
VERSE 1 (x2)

"Took her out this saturday......"

E|----------------------------------------------------
B|----------------------------------------------------
G|----------------------------------------------------
D|-7-7-7-9-4-4-2-4--7-7-7-2-4-4-2-4--7-7-7-9-4-4-4-4--
A|-7-7-7-9-4-4-2-4--7-7-7-2-4-4-2-4--7-7-7-9-4-4-4-4--
D|-7-7-7-9-4-4-2-4--7-7-7-2-4-4-2-4--7-7-7-9-4-4-4-4--

E|--------------------
B|--------------------
G|--------------------
D|--2-2-2-2--2-2-2-2--
A|--2-2-2-2--2-2-2-2--
D|--2-2-2-2--2-2-2-2--

Curse you 60 character line limit :)

============================================================
CHORUS (x1)

"I want my tongue between your teeth......"

E|-------------------------------------------------
B|-------------------------------------------------
G|-------------------------------------------------
D|-7-7-7-7--11-11-11-11--14-14-14-14--14-14-14-14--
A|-7-7-7-7--11-11-11-11--14-14-14-14--14-14-14-14--
D|-7-7-7-7--11-11-11-11--14-14-14-14--14-14-14-14--

E|-------------------------------------------------
B|-------------------------------------------------
G|-------------------------------------------------
D|-7-7-7-7--11-11-11-11--14-14-14-14--14-14-14-14--
A|-7-7-7-7--11-11-11-11--14-14-14-14--14-14-14-14--
D|-7-7-7-7--11-11-11-11--14-14-14-14--14-14-14-14--

E|-------------------------------------------------
B|-------------------------------------------------
G|-------------------------------------------------
D|-7-7-7-7--11-11-11-11--14-14-14-14--14-14-14-14--
A|-7-7-7-7--11-11-11-11--14-14-14-14--14-14-14-14--
D|-7-7-7-7--11-11-11-11--14-14-14-14--14-14-14-14--

E|-----------------------------------------------------
B|-----------------------------------------------------
G|-----------------------------------------------------
D|-12-7-9-2-4-4--4-4-2-4-4--4-4-2-4-4--4-4-2-4-4--4-4--
A|-12-7-9-2-4-4--4-4-2-4-4--4-4-2-4-4--4-4-2-4-4--4-4--
D|-12-7-9-2-4-4--4-4-2-4-4--4-4-2-4-4--4-4-2-4-4--4-4--


============================================================
VERSE 2 (x2)

"Said she wanted diamonds......"
[ Tab from: http://www.guitartabs.cc/tabs/c/crocketts/the_beauty_and_the_beast_tab.html ]
E|----------------------------------------------------
B|----------------------------------------------------
G|----------------------------------------------------
D|-7-7-7-9-4-4-2-4--7-7-7-2-4-4-2-4--7-7-7-9-4-4-4-4--
A|-7-7-7-9-4-4-2-4--7-7-7-2-4-4-2-4--7-7-7-9-4-4-4-4--
D|-7-7-7-9-4-4-2-4--7-7-7-2-4-4-2-4--7-7-7-9-4-4-4-4--

E|--------------------
B|--------------------
G|--------------------
D|--2-2-2-2--2-2-2-2--
A|--2-2-2-2--2-2-2-2--
D|--2-2-2-2--2-2-2-2--

============================================================
CHORUS (x1)

"I want my tongue between your teeth......"

E|-------------------------------------------------
B|-------------------------------------------------
G|-------------------------------------------------
D|-7-7-7-7--11-11-11-11--14-14-14-14--14-14-14-14--
A|-7-7-7-7--11-11-11-11--14-14-14-14--14-14-14-14--
D|-7-7-7-7--11-11-11-11--14-14-14-14--14-14-14-14--

E|-------------------------------------------------
B|-------------------------------------------------
G|-------------------------------------------------
D|-7-7-7-7--11-11-11-11--14-14-14-14--14-14-14-14--
A|-7-7-7-7--11-11-11-11--14-14-14-14--14-14-14-14--
D|-7-7-7-7--11-11-11-11--14-14-14-14--14-14-14-14--

E|-------------------------------------------------
B|-------------------------------------------------
G|-------------------------------------------------
D|-7-7-7-7--11-11-11-11--14-14-14-14--14-14-14-14--
A|-7-7-7-7--11-11-11-11--14-14-14-14--14-14-14-14--
D|-7-7-7-7--11-11-11-11--14-14-14-14--14-14-14-14--

E|----------------------------------------------
B|----------------------------------------------
G|----------------------------------------------
D|-12-7-9-2-4-4--4-4-2-4-4--4-4-2-4-4--4-4-2-4--
A|-12-7-9-2-4-4--4-4-2-4-4--4-4-2-4-4--4-4-2-4--
D|-12-7-9-2-4-4--4-4-2-4-4--4-4-2-4-4--4-4-2-4--

                                           (Let Ring)
===========================================================
SOLO (x1) 	

Time for that 2nd guitarist to pull his or her weight! 
One rhythm guitar does the VERSE section as above, 
while on top of that, a lead guitarist does this solo.

E|-/5-5-7-5p4-2-2-0-2-4h5-5-7-5p4-2(hold)
B|---------------------------------
G|---------------------------------
D|---------------------------------
A|---------------------------------
D|---------------------------------

E|--5-5-7-5p4-2-2-2-2--------------
B|--------------------2-5-7b7------
G|---------------------------------
D|---------------------------------
A|---------------------------------
D|---------------------------------

E|--14b14b-9-12-14b14b14-12-9-14b14b14--
B|--------------------------------------
G|--------------------------------------
D|--------------------------------------
A|--------------------------------------
D|--------------------------------------

E|--5-9-12-9-12-9-7-4-3-2-0-------------
B|--------------------------------------
G|--------------------------------------
D|--------------------------------------
A|--------------------------------------
D|--------------------------------------

============================================================
CHORUS (x1)

"I want my tongue between your teeth......"

E|-------------------------------------------------
B|-------------------------------------------------
G|-------------------------------------------------
D|-7-7-7-7--11-11-11-11--14-14-14-14--14-14-14-14--
A|-7-7-7-7--11-11-11-11--14-14-14-14--14-14-14-14--
D|-7-7-7-7--11-11-11-11--14-14-14-14--14-14-14-14--

E|-------------------------------------------------
B|-------------------------------------------------
G|-------------------------------------------------
D|-7-7-7-7--11-11-11-11--14-14-14-14--14-14-14-14--
A|-7-7-7-7--11-11-11-11--14-14-14-14--14-14-14-14--
D|-7-7-7-7--11-11-11-11--14-14-14-14--14-14-14-14--

E|-------------------------------------------------
B|-------------------------------------------------
G|-------------------------------------------------
D|-7-7-7-7--11-11-11-11--14-14-14-14--14-14-14-14--
A|-7-7-7-7--11-11-11-11--14-14-14-14--14-14-14-14--
D|-7-7-7-7--11-11-11-11--14-14-14-14--14-14-14-14--

E|----------------------------------------------
B|----------------------------------------------
G|----------------------------------------------
D|-12-7-9-2-4-4--4-4-2-4-4--4-4-2-4-4--4-4-2-4--
A|-12-7-9-2-4-4--4-4-2-4-4--4-4-2-4-4--4-4-2-4--
D|-12-7-9-2-4-4--4-4-2-4-4--4-4-2-4-4--4-4-2-4--

                                           (Let Ring)
KEY:
h = hammer on
p = pull off
B = bend
/ = slide up
============================================================
Now have fun y'all!
Comments