Croce Jim - Time In A Bottle Chords & Tabs

 

Time In A Bottle Chords & Tabs

Croce Jim Chords & Tabs

Version: 2 Type: Tab 1 rating
1 star 2 stars 3 stars 4 stars 5 stars
comments

Time In A Bottle Tab

   
#----------------------------------PLEASE NOTE---------------------------------#
#This file is the author's own work and represents their interpretation of the #
#song. You may only use this file for private study, scholarship, or research. #
#------------------------------------------------------------------------------#

Date: Thu, 29.08.2004
Tabbed by Peter Tuyp(peter.tuyp@wxs.nl)

subject: Jim Croce - Time in a bottle

Originaly the song is played by at least two guitars. I think this is a version playable by one.


Intro:
|----10----10----10----9----9----9----8----8----8---7---7---7---6---6---6---6---6---6-|
|-10----10----10----10---10---10---10---10---10---8---8---8---8---5---6---8---6---5---|
|-------------------------------------------------------------------------------------|
|-------------------------------------------------------------------------------------|
|-------------------------------------------------------------------------------------|
|-10-----------------9--------------8-------------7-----------6-----------8---7---3---|

|-5-7-9-12-10-9h10p9---|
|----------------------|
|-6/7-9-12-12-9--------|
|----------------------|
|----------------------|
|----------------------|

Verse 1:

|-------1-----------1-----------1-----------1-----------0-----------1-------------------|
|-----3-----3-----3-----3-----3-----3-----3-----3-----3-----3-----3-----3-2-3-5-8-6-5---|
|---2-----2-----2-----2-----2-----2-----0-----0-----0-----0-----0-----0-----------------|
|-0-------------------------------------------------------------------------------------|
|-------------4-----------3-----------2-----------1-----------1-----------0-2-4-7-5-4---|
|---------------------------------------------------------------------------------------|


|-------1-----------1-----------0-----------0-----------1-----------0---------------------|
|-----3-----3-----3-----3-----3-----3-----3-----3-----3-----3-----3-----3-2-3-5-2h3p2-0-2-|
|---2-----2-----2-----2-----0-----0-----0-----0-----0-----0-----3-----3---------------0-2-|
|-0---------------------------------------------------------------------------------------|
|-------------3-----------1-----------------------------------------------0-2-4-0---------|
|-------------------------------------3-----------1-----------3---------------------------|

Verse 2:

|-------1-----------1-----------1-----------1-----------0-----------1-------------------|
|-----3-----3-----3-----3-----3-----3-----3-----3-----3-----3-----3-----3-2-3-5-8-6-5---|
|---2-----2-----2-----2-----2-----2-----0-----0-----0-----0-----0-----0-----------------|
|-0-------------------------------------------------------------------------------------|
|-------------4-----------3-----------2-----------1-----------1-----------0-2-4-7-5-4---|
|---------------------------------------------------------------------------------------|


|-------1-----------1-----------0-----------0-----------1-----------0---------------------|
|-----3-----3-----3-----3-----3-----3-----3-----3-----3-----3-----3-----3-2-3-5-2h3p2-0-2-|
|---2-----2-----2-----2-----0-----0-----0-----0-----0-----0-----3-----3---------------0-2-|
|-0---------------------------------------------------------------------------------------|
|-------------3-----------1-----------------------------------------------0-2-4-0---------|
|-------------------------------------3-----------1-----------3---------------------------|

Chorus:
But there never seems ...
|-------2-----------2-----------2-----------2-----------3-----------0-----------0-------------|
|-----3-----3-----3-----3-----3-----3-----3-----3-----3-----3-----3-----3-----3-----3-2-3-5---|
|---2-----2-----2-----2-----4-----4-----2-----2-----0-----0-----2-----2-----0-----0-----------|
|-0-------------------------------------------------------------------------------------------|
|-------------4-----------2-----------0-----------2-----------0-----------------------0-2-4---|
|-------------------------------------------------------------------------3-------------------|

[ Tab from: http://www.guitartabs.cc/tabs/c/croce_jim/time_in_a_bottle_tab_ver_2.html ]
|-------2-----------2-----------2-----------2-----------3-----------0-----------0-------------|
|-----3-----3-----3-----3-----3-----3-----3-----3-----3-----3-----3-----3-----3-----3-2-3-5---|
|---2-----2-----2-----2-----4-----4-----2-----2-----0-----0-----2-----2-----0-----0-----------|
|-0-------------------------------------------------------------------------------------------|
|-------------4-----------2-----------0-----------2-----------0-----------------------0-2-4---|
|-------------------------------------------------------------------------3-------------------|

Solo:
|----10----10----10----9----9----9----8----8----8---7---7---7---6---6---6---6---6---6-|
|-10----10----10----10---10---10---10---10---10---8---8---8---8---5---6---8---6---5---|
|-------------------------------------------------------------------------------------|
|-------------------------------------------------------------------------------------|
|-------------------------------------------------------------------------------------|
|-10-----------------9--------------8-------------7-----------6-----------8---7---3---|

|-5-7-9-12-10-9h10p9---|
|----------------------|
|-6/7-9-12-12-9--------|
|----------------------|
|----------------------|
|----------------------|

Verse 3:

|-------1-----------1-----------1-----------1-----------0-----------1-------------------|
|-----3-----3-----3-----3-----3-----3-----3-----3-----3-----3-----3-----3-2-3-5-8-6-5---|
|---2-----2-----2-----2-----2-----2-----0-----0-----0-----0-----0-----0-----------------|
|-0-------------------------------------------------------------------------------------|
|-------------4-----------3-----------2-----------1-----------1-----------0-2-4-7-5-4---|
|---------------------------------------------------------------------------------------|


|-------1-----------1-----------0-----------0-----------1-----------0---------------------|
|-----3-----3-----3-----3-----3-----3-----3-----3-----3-----3-----3-----3-2-3-5-2h3p2-0-2-|
|---2-----2-----2-----2-----0-----0-----0-----0-----0-----0-----3-----3---------------0-2-|
|-0---------------------------------------------------------------------------------------|
|-------------3-----------1-----------------------------------------------0-2-4-0---------|
|-------------------------------------3-----------1-----------3---------------------------|

Chorus:
But there never seems ...
|-------2-----------2-----------2-----------2-----------3-----------0-----------0-------------|
|-----3-----3-----3-----3-----3-----3-----3-----3-----3-----3-----3-----3-----3-----3-2-3-5---|
|---2-----2-----2-----2-----4-----4-----2-----2-----0-----0-----2-----2-----0-----0-----------|
|-0-------------------------------------------------------------------------------------------|
|-------------4-----------2-----------0-----------2-----------0-----------------------0-2-4---|
|-------------------------------------------------------------------------3-------------------|


|-------2-----------2-----------2-----------2-----------3-----------0-----------0-------------|
|-----3-----3-----3-----3-----3-----3-----3-----3-----3-----3-----3-----3-----3-----3-2-3-5---|
|---2-----2-----2-----2-----4-----4-----2-----2-----0-----0-----2-----2-----0-----0-----------|
|-0-------------------------------------------------------------------------------------------|
|-------------4-----------2-----------0-----------2-----------0-----------------------0-2-4---|
|-------------------------------------------------------------------------3-------------------|

Outro:
                H H               H H               H H
|---0-----0-----------0-----0-----------0-----0---------0----|
|-----6-----6-----------6-----6-----------6-----6-------6----|
|-------7-----7---7-------7-----7---7-------7-----7---7-7----|
|-0-------------7---0-------------7---0-------------7---0----|
|------------------------------------------------------------|
|------------------------------------------------------------|

H = Harmonic
Comments