Croce Jim - Don't Mess Around With Jim Chords & Tabs

 

Don't Mess Around With Jim Chords & Tabs

Croce Jim Chords & Tabs

Version: 1 Type: Tab 0 ratings
1 star 2 stars 3 stars 4 stars 5 stars
comments

Don't Mess Around With Jim Tab

   
#----------------------------------PLEASE NOTE---------------------------------#
#This file is the author's own work and represents their interpretation of the #
#song. You may only use this file for private study, scholarship, or research. #
#------------------------------------------------------------------------------#

Date: Friday, 23.12.2004
Tabbed by Peter Tuyp(peter.tuyp@wxs.nl)

subject: Jim Croce - You don't mess around with Jim


Guitar 1 plays the ritme part. It is played rather muted, especialy the first 3 bars.
Guitar 2 plays the licks in between, with lots of bending.


Intro:
Guitar 1
  E                            
|------------------------------------------------------------------------------------------------|
|------------------------------------------------------------------------------------------------|
|------------------------------------------------------------------------------------------------|
|---------(2)---(2)---(2)----------2-----2----(2)---------(2)---(2)---(2)----------2-----2----(2)|
|---------(2)---(2)---(2)----------2-----2h4--(2)---------(2)---(2)---(2)----------2-----2h4--(2)|
|-0-----0-----0-----0-----0-----0-----0-----------0-----0-----0-----0-----0-----0-----0----------|


Verse 1:
Guitar 1
  E                            
|------------------------------------------------------------------------------------------------|
|------------------------------------------------------------------------------------------------|
|------------------------------------------------------------------------------------------------|
|---------(2)---(2)---(2)----------2-----2----(2)---------(2)---(2)---(2)----------2-----2----(2)|
|---------(2)---(2)---(2)----------2-----2h4--(2)---------(2)---(2)---(2)----------2-----2h4--(2)|
|-0-----0-----0-----0-----0-----0-----0-----------0-----0-----0-----0-----0-----0-----0----------|
 


Guitar 1
  E                                               E7                            
|------------------------------------------------------------------------------------------------|
|------------------------------------------------------------------------------------------------|
|------------------------------------------------------------------------------------------------|
|---------(2)---(2)---(2)----------2-----2----(2)---------(0)---(0)---(0)----------0-----0----(0)|
|---------(2)---(2)---(2)----------2-----2h4--(2)---------(2)---(2)---(2)----------2-----2h4--(2)|
|-0-----0-----0-----0-----0-----0-----0-----------0-----0-----0-----0-----0-----0-----0----------|
  
Guitar 2
|----------------------------------------------------------------------------------10------------|
|-------------------------------------------------------------------------10b12-------10b12------|
|------------------------------------------------------------------------------------------------|
|------------------------------------------------------------------------------------------------|
|------------------------------------------------------------------------------------------------|
|------------------------------------------------------------------------------------------------|


Guitar 1
  A
|------------------------------------------------------------------------------------------------|
|------------------------------------------------------------------------------------------------|
|----------2-----2-----2-----------2-----2-----2-----------2-----2-----2-----------2-----2-----2-|
|----------2-----2-----2-----------2-----2h4---2-----------2-----2-----2-----------2-----2h4---2-|
|-0-----0-----0-----0-----0-----0-----0-----------0-----0-----0-----0-----0-----0-----0----------|
|------------------------------------------------------------------------------------------------|

Guitar 2
|------------------------------------------------------------------------------------------------|
|-10b12-10b12-10-8-----8-----10-------------------------10b12-10-8-----8-------------------------|
|-------------------9-----------------------------------------------9-----9----------------------|
|------------------------------------------------------------------------------------------------|
|------------------------------------------------------------------------------------------------|
|------------------------------------------------------------------------------------------------|


Guitar 1
  B                       A                       B                       A   
|------------------------------------------------------------------------------------------------|
|------------------------------------------------------------------------------------------------|
|----------4-----4-----4-----------2-----2-----2-----------4-----4-----4-----------2-----2-----2-|
|----------4-----4-----4-----------2-----2-----2-----------4-----4-----4-----------2-----2-----2-|
|-2-----2-----2-----2-----0-----0-----0-----0-----2-----2-----2-----2-----0-----0-----0-----0----|
|------------------------------------------------------------------------------------------------|
  
Guitar 2
|------------------------------------------------------------------------------------------------|
|-------5b7---5--3--------------5b7---5-----3-----------5b7---5-----3-----3----------------------|
|-------------------4--------------------4-----------------------------4---------4-----2-----0---|
|------------------------------------------------------------------------------------------------|
|------------------------------------------------------------------------------------------------|
|------------------------------------------------------------------------------------------------|


Chorus:
Guitar 1
  E                                               A7                      E                        
|------------------------------------------------------------------------------------------------|
|------------------------------------------------------------------------------------------------|
|-------------------------------------------------------0--0-----0-----0-------------------------|
|----------2-----2-----2-----------2-----2-----2--------2--2-----2-----2--------2--2-----2-----2-|
|----------2-----2-----2-----------2-----2-----2--0-----------0-----0-----------2--2-----2-----2-|
|-0-----0-----0-----0-----0-----0-----2-----4-----------------------------0-----------0-----0----|
  
Guitar 2
|-------------------------------------------------------5----------------------------------------|
|----------------------------3--------------------------5----------------------------------------|
|-------------------0-----2/4---4p2p0-2--0--------------6----------------------------------------|
|-2-----2--------0h2------------------------2-----------5-----7--5--7-----8b9---7--5--7--5-------|
|-------------------------------------------------------------------------------------------7----|
|-------------------------------------------------5----------------------------------------------|


Guitar 1
  A7                      E                       A7
|------------------------------------------------------------------------------------------------|
|------------------------------------------------------------------------------------------------|
|-------0--0-----0-----0-----------------------------------0-----0-----0-----------0-----0-----0-|
|-------2--2-----2-----2--------2--2-----2-----2-----------2-----2-----2-----------2-----2-----2-|
|-0-----------0-----0-----------2--2-----2-----2--0-----0-----0-----0-----0-----0-----0-----0----|
|-------------------------0-----------0-----0----------------------------------------------------|
  
Guitar 2
|-------5----------------------------------------------------------------------------------------|
|-------5----------------------------------------------------------------------------------------|
|-------6--------------------7--------------------0h2---------2-----------0h2---0h2---0h2---0h2--|
|-5-----5-----7--5--7-----8b9---8p7p5-7--5-------------------------------------------------------|
|-------------------------------------------7----------------------------------------------------|
|------------------------------------------------------------------------------------------------|


Guitar 1    
  B7                      E
|-------------------------------------------------------------------------|
|-------------------------------------------------------------------------|
|----2-----2-----2-----2--------------------------------------------------|
|----1-----1-----1-----1-----------2-----2-----2-----------2-----2-----2--|
|-2-----0--------------------------2-----2-----2-----------2-----2-----2--|
|-------------3-----2-----0-----0-----0-----0-----0-----0-----0-----0-----|
  don't mess around with Jim ....
Guitar 2
|-------------------------------------------------------------------------|
|----3--------------------------------------------------------------------|
|-2h4---2-----0--0--------------------------------------------------------|
|----------4-----------2--------2-----5--7--5-----8b9---7--5--7--5--------|
|-------------------------------------------------------------------------|
|-------------------------------------------------------------------------|


Guitar 1
  B7
|-------------------------------------------------|
|-------------------------------------------------|
|----------2-----2-----2-----------2-----2-----2--|
|----------1-----1-----1-----------1-----1-----1--|
|-2-----2-----2-----2-----2-----2-----2-----2-----|
|-------------------------------------------------|
  di                          
Guitar 2
|-------------------------------------------------|
|-0-----0-----0-----0-----------------------------|
|-2-----2-----2-----2-----------------------------|
|-1-----1-----1-----1-----0h1-2-1-----4--2--1--0h2|
|----------2-----------2--------------------------|
|-------------------------------------------------|


Verse 2:
Guitar 1
  E                            
|------------------------------------------------------------------------------------------------|
|------------------------------------------------------------------------------------------------|
|------------------------------------------------------------------------------------------------|
|----------2-----2-----2-----------2-----2-----2-----------2-----2-----2-----------2-----2-----2-|
|----------2-----2-----2-----------2-----2-----2-----------2-----2-----2-----------2-----2-----2-|
|-0-----0-----0-----0-----0-----0-----0-----0-----0-----0-----0-----0-----0-----0-----0-----0----|
  
Guitar 2
|------------------------------------------------------------------------------------------------|
|------------------------------------------------------------------------------------------------|
|-1-----1-----1-----1-----1-----1---------0--------1----1-----1-----1--------------0-----1-------|
|-2-----2-----2-----2-----0h2---2-----0h2---2--0h2-2----2-----2-----2-----0h2-2----------2-------|
|-2-----2-----2-----2-----2-----2------------------2----2-----2-----2---------2----------2-------|
|------------------------------------------------------------------------------------------------|


Guitar 1
  E                                               E7                            
|------------------------------------------------------------------------------------------------|
|------------------------------------------------------------------------------------------------|
|------------------------------------------------------------------------------------------------|
|----------2-----2-----2-----------2-----2-----2-----------0-----0-----0-----------0-----0-----0-|
|----------2-----2-----2-----------2-----2-----2-----------2-----2-----2-----------2-----2-----2-|
|-0-----0-----0-----0-----0-----0-----0-----0-----0-----0-----0-----0-----0-----0-----0-----0----|
  
Guitar 2
|------------------------------------------------------------------------------------------------|
|----------------------------------------------------------------------------------0-----2----3/5|
|-1-----1-----1-----1-----1-----1--------0--------1-----1-----1-----1--------------1-----1----2--|
|-0h2---2-----2-----2-----0h2---2-----0h2---2--0--2-----2-----2-----2-----0h2-2------------------|
|-2-----2-----2-----2-----2-----2-----------------2-----2-----2-----2---------2------------------|
|------------------------------------------------------------------------------------------------|


Guitar 1
   A
|------------------------------------------------------------------------------------------------|
|------------------------------------------------------------------------------------------------|
|----------2-----2-----2-----------2-----2-----2-----------2-----2-----2-----------2-----2-----2-|
|----------2-----2-----2-----------2-----2-----2-----------2-----2-----2-----------2-----2-----2-|
|-0-----0-----0-----0-----0-----0-----0-----0-----0-----0-----0-----0-----0-----0-----0-----0----|
|------------------------------------------------------------------------------------------------|

Guitar 2
|-------------------------------------3-----5b7---5--3-----------------------3--5b7---5--3-------|
|-5-----------------------------5-----------------------5-----------------5-----------------5--3-|
|-6----------------------------------------------------------------------------------------------|
|------------------------------------------------------------------------------------------------|
|------------------------------------------------------------------------------------------------|
|------------------------------------------------------------------------------------------------|


Guitar 1
  B                       A                       B                       A   
|------------------------------------------------------------------------------------------------|
|------------------------------------------------------------------------------------------------|
|----------4-----4-----4-----------2-----2-----2-----------4-----4-----4-----------2-----2-----2-|
|----------4-----4-----4-----------2-----2-----2-----------4-----4-----4-----------2-----2-----2-|
|-2-----2-----2-----2-----0-----0-----0-----0-----2-----2-----2-----2-----0-----0-----0-----0----|
|------------------------------------------------------------------------------------------------|
 
Guitar 2
|------------------------------------------------------------------------------------------------|
|----------------------------5-----5-----5-----------------------------0h2---5-----7b9r7-5-----5-|
|-4-----------2h4---------4-----------------------------4-----4-----4-----------------------6----|
|------------------------------------------------------------------------------------------------|
|------------------------------------------------------------------------------------------------|
|------------------------------------------------------------------------------------------------|


Chorus:
Guitar 1
  E                                               A7                      E                        
|------------------------------------------------------------------------------------------------|
|------------------------------------------------------------------------------------------------|
|-------------------------------------------------------0--0-----0-----0-------------------------|
|----------2-----2-----2-----------2-----2-----2--------2--2-----2-----2--------2--2-----2-----2-|
|----------2-----2-----2-----------2-----2-----2--0-----------0-----0-----------2--2-----2-----2-|
|-0-----0-----0-----0-----0-----0-----2-----4-----------------------------0-----------0-----0----|
  say(hey jack) ...
Guitar 2
|----------------------7--------7----------------------------------------------------------------|
|----5--------7b9---------7b9---------7b9r7-5---------------------------------7b9--7--5----------|
|------------------------------------------------------------------------------------------------|
|------------------------------------------------------------------------------------------------|
|------------------------------------------------------------------------------------------------|
|------------------------------------------------------------------------------------------------|


Guitar 1
  A7                      E                       A7
|------------------------------------------------------------------------------------------------|
|------------------------------------------------------------------------------------------------|
|-------0--0-----0-----0-----------------------------------0-----0-----0-----------0-----0-----0-|
|-------2--2-----2-----2--------2--2-----2-----2-----------2-----2-----2-----------2-----2-----2-|
|-0-----------0-----0-----------2--2-----2-----2--0-----0-----0-----0-----0-----0-----0-----0----|
|-------------------------0-----------0-----0----------------------------------------------------|
  
Guitar 2
|----------------------------5-----6b7---5-----5-------------------------------------------------|
|----------------------5--8-----------------8-----------8-----5--------------------8-----10------|
|----------------------------------------------------------------------7--9--7--9----------------|
|------------------------------------------------------------------------------------------------|
|------------------------------------------------------------------------------------------------|
|------------------------------------------------------------------------------------------------|


Guitar 1    
  B7                      E
|-------------------------------------------------------------------------|
|-------------------------------------------------------------------------|
|----2-----2-----2-----2--------------------------------------------------|
|----1-----1-----1-----1-----------2-----2-----2-----------2-----2-----2--|
|-2-----0--------------------------2-----2-----2-----------2-----2-----2--|
|-------------3-----2-----0-----0-----0-----0-----0-----0-----0-----0-----|
  don't mess around with Jim Ba doo dn doo da  da di    di dn di    di
Guitar 2
|------10--10-------------------------------------------------------------|
|-10b12--10---8--8-----------------------8--------10b12-10----8--10-8-----|
|----------------------9-----9-----7h9------------------------------------|
|-------------------------------------------------------------------------|
|-------------------------------------------------------------------------|
|-------------------------------------------------------------------------|


Guitar 1
  B7
|-------------------------------------------------|
|-------------------------------------------------|
|----------2-----2-----2-----------2-----2-----2--|
|----------1-----1-----1-----------1-----1-----1--|
|-2-----2-----2-----2-----2-----2-----2-----2-----|
|-------------------------------------------------|
  di                                   Well a
Guitar 2
|-------------------------------------------------|
|-------------------------------------------------|
|-9-----7b8------7b8------7b8---------------7-----|
|-------------------------------9-----7--9--------|
|-------------------------------------------------|
|-------------------------------------------------|

[ Tab from: http://www.guitartabs.cc/tabs/c/croce_jim/dont_mess_around_with_jim_tab.html ]
Verse 3:
Guitar 1
  E                            
|------------------------------------------------------------------------------------------------|
|------------------------------------------------------------------------------------------------|
|------------------------------------------------------------------------------------------------|
|-------2--2--------2-----------2--2-----2-----2--------2--2--------2-----------2--2-----2-----2-|
|-------2--2--------2-----------2--2-----2-----2--------2--2--------2-----------2--2-----2-----2-|
|-0-----------0--------0-----0--------0-----0-----0-----------0--------0-----0--------0-----0----|

Guitar 2
|------------------------------------------------------------------------------------------------|
|------------------------------------------------------------------------------------------------|
|-9--------------------------------------------------------------------------------------7b8-----|
|------------------------------------------------------------------------------------------------|
|------------------------------------------------------------------------------------------------|
|------------------------------------------------------------------------------------------------|


Guitar 1
  E                                               E7
|------------------------------------------------------------------------------------------------|
|------------------------------------------------------------------------------------------------|
|------------------------------------------------------------------------------------------------|
|-------2--2--------2-----------2--2-----2-----2--------0--0--------0-----------0--0-----0-----0-|
|-------2--2--------2-----------2--2-----2-----2--------2--2--------2-----------2--2-----2-----2-|
|-0-----------0--------0-----0--------0-----0-----0-----------0--------0-----0--------0-----0----|
 
Guitar 2
|------------------------------------------------------------------------------------------------|
|----------------------------------------------------------------------------8-----10-10b11-10b12|
|-9--------------------------------------------7--9-----------------------9----------------------|
|-------------------------------------------7/9--------------------------------------------------|
|------------------------------------------------------------------------------------------------|
|------------------------------------------------------------------------------------------------|


Guitar 1
   A
|------------------------------------------------------------------------------------------------|
|------------------------------------------------------------------------------------------------|
|----------2-----2-----2-----------2-----2-----2-----------2-----2-----2-----------2-----2-----2-|
|----------2-----2-----2-----------2-----2-----2-----------2-----2-----2-----------2-----2-----2-|
|-0-----0-----0-----0-----0-----0-----0-----0-----0-----0-----0-----0-----0-----0-----0-----0----|
|------------------------------------------------------------------------------------------------|
 
Guitar 2
|-------------------------------------------10---------------------------------------------------|
|-10p8-----8--------10----------------10/12----1210----8-----------------------------11b12-10---|
|-------9----------------------------------------------------------------------------------------|
|------------------------------------------------------------------------------------------------|
|------------------------------------------------------------------------------------------------|
|------------------------------------------------------------------------------------------------|

  
Guitar 1
  B                       A                       B                       A   
|------------------------------------------------------------------------------------------------|
|------------------------------------------------------------------------------------------------|
|----------4-----4-----4-----------2-----2-----2-----------4-----4-----4-----------2-----2-----2-|
|----------4-----4-----4-----------2-----2-----2-----------4-----4-----4-----------2-----2-----2-|
|-2-----2-----2-----2-----0-----0-----0-----0-----2-----2-----2-----2-----0-----0-----0-----0----|
|------------------------------------------------------------------------------------------------|
 
Guitar 2
|------------------------------------------------------------------------------------------------|
|-10b12----------------12r10----------------------10b12----------------10b12r10-8--8--10------7b8|
|--------------------------------------------------------------------------------9---------------|
|------------------------------------------------------------------------------------------------|
|------------------------------------------------------------------------------------------------|
|------------------------------------------------------------------------------------------------|


Guitar 1
  E                                               A7                      E                       
|------------------------------------------------------------------------------------------------|
|------------------------------------------------------------------------------------------------|
|-------------------------------------------------------0--0-----0-----0-------------------------|
|----------2-----2-----2-----------2-----2-----2--------2--2-----2-----2--------2--2-----2-----2-|
|----------2-----2-----2-----------2-----2-----2--0-----------0-----0-----------2--2-----2-----2-|
|-0-----0-----0-----0-----0-----0-----2-----4-----------------------------0-----------0-----0----|
                      
Guitar 2
|------------------------------------------------------------------------------------------------|
|-5--------5--------------------5-----5b6---------------------------------------------8--5b7---5-|
|-------7--------7--4-----7-----------------7--4-----------------------------7--9----------------|
|-------------------------------------------------7--------------------7h9-----------------------|
|------------------------------------------------------------------------------------------------|
|------------------------------------------------------------------------------------------------|


Guitar 1
  A7                      E                       A7
|------------------------------------------------------------------------------------------------|
|------------------------------------------------------------------------------------------------|
|-------0--0-----0-----0-----------------------------------0-----0-----0-----------0-----0-----0-|
|-------2--2-----2-----2--------2--2-----2-----2-----------2-----2-----2-----------2-----2-----2-|
|-0-----------0-----0-----------2--2-----2-----2--0-----0-----0-----0-----0-----0-----0-----0----|
|-------------------------0-----------0-----0----------------------------------------------------|

Guitar 2
|----------------------------------------------------------------------------3-----5b7r5-3-----3-|
|-5--------------------------------3--5--5--5b7r5-------------------------5-----------------5----|
|-------------------------------4----------------------------------------------------------------|
|------------------------------------------------------------------------------------------------|
|------------------------------------------------------------------------------------------------|
|------------------------------------------------------------------------------------------------|


Guitar 1    
  B7                      E
|-------------------------------------------------------------------------|
|-------------------------------------------------------------------------|
|----2-----2-----2-----2--------------------------------------------------|
|----1-----1-----1-----1-----------2-----2-----2-----------2-----2-----2--|
|-2-----0--------------------------2-----2-----2-----------2-----2-----2--|
|-------------3-----2-----0-----0-----0-----0-----0-----0-----0-----0-----|
  don't mess around with Slim   Mm    mm mm       mm    mm m  mm m
Guitar 2 
|-5b7---3-----5b7r5-3-----3-----------------3-----5b7---5--3--5--3--------|
|----------------------5--------5-----3--5--------------------------------|
|-------------------------------------------------------------------------|
|-------------------------------------------------------------------------|
|-------------------------------------------------------------------------|
|-------------------------------------------------------------------------|


Guitar 1
  E                            
|------------------------------------------------------------------------------------------------|
|------------------------------------------------------------------------------------------------|
|------------------------------------------------------------------------------------------------|
|----------2-----2-----2-----------2-----2-----2-----------2-----2-----2-----------2-----2-----2-|
|----------2-----2-----2-----------2-----2-----2-----------2-----2-----2-----------2-----2-----2-|
|-0-----0-----0-----0-----0-----0-----0-----0-----0-----0-----0-----0-----0-----0-----0-----0----|
  
                              
Guitar 2
|----------10------------------------------------------------------------------------------------|
|----10b12-------------------------------10b12r10-8-----------------------------------------3----|
|----------------------------------------------------9-------------------------------------------|
|------------------------------------------------------------------------------------------------|
|------------------------------------------------------------------------------------------------|
|------------------------------------------------------------------------------------------------|

 
Guitar 1
  E                            
|-------------------------------------------------|
|-------------------------------------------------|
|-------------------------------------------------|
|----------2-----2-----2-----------2-----2-----2--|
|----------2-----2-----2-----------2-----2-----2--|
|-0-----0-----0-----0-----0-----0-----0-----0-----|
 
Guitar 2
|-------------------------------------------------|
|-5b6---5-----------------------------------3-----|
|--------------------------------------2/4-----4--|
|-------------------------------------------------|
|-------------------------------------------------|
|-------------------------------------------------|


Guitar 1
  E                                               A7                      E                        
|------------------------------------------------------------------------------------------------|
|------------------------------------------------------------------------------------------------|
|-------------------------------------------------------0--0-----0-----0-------------------------|
|----------2-----2-----2-----------2-----2-----2--------2--2-----2-----2--------2--2-----2-----2-|
|----------2-----2-----2-----------2-----2-----2--0-----------0-----0-----------2--2-----2-----2-|
|-0-----0-----0-----0-----0-----0-----2-----4-----------------------------0-----------0-----0----|
                          
Guitar 2
|------------------------------------------------------------------------------------------------|
|-3--4b5---3--------------3-----------5-----------------7b9---5-----5-----5-----5-----5--5-------|
|----------------4--2--1-----------------------------------------7-----------------7-------------|
|------------------------------------------------------------------------------------------------|
|------------------------------------------------------------------------------------------------|
|------------------------------------------------------------------------------------------------|


Guitar 1
  A7                      E                       A7
|------------------------------------------------------------------------------------------------|
|------------------------------------------------------------------------------------------------|
|-------0--0-----0-----0-----------------------------------0-----0-----0-----------0-----0-----0-|
|-------2--2-----2-----2--------2--2-----2-----2-----------2-----2-----2-----------2-----2-----2-|
|-0-----------0-----0-----------2--2-----2-----2--0-----0-----0-----0-----0-----0-----0-----0----|
|-------------------------0-----------0-----0----------------------------------------------------|
  
Guitar 2
|-------------7--------7-------------------------------------------------------------------------|
|-------7b8------7b8------8p7p5-8p7p5-8p7p5----5--------8--------------------8-----10b12r10-8----|
|-------------------------------------------6-----------9-----------7--9---------------------9-9-|
|------------------------------------------------------------------------------------------------|
|------------------------------------------------------------------------------------------------|
|------------------------------------------------------------------------------------------------|


Guitar 1    
  B7                      E
|-------------------------------------------------|
|-------------------------------------------------|
|----2-----2-----2-----2--------------------------|
|----1-----1-----1-----1-----------2-----2-----2--|
|-2-----0--------------------------2-----2-----2--|
|-------------3-----2-----0-----0-----0-----0-----|
   
Guitar 2
|-------------------------------------------------|
|-10b12-10-------8--------------------------8-----|
|-------------9-----7-----9-----9--7--9-----------|
|-------------------------------------------------|
|-------------------------------------------------|
|-------------------------------------------------|


Outro:
Guitar 1
  E                            
|------------------------------------------------------------------------------------------------|
|------------------------------------------------------------------------------------------------|
|------------------------------------------------------------------------------------------------|
|----------2-----2-----2-----------2-----2-----2-----------2-----2-----2-----------2-----2-----2-|
|----------2-----2-----2-----------2-----2-----2-----------2-----2-----2-----------2-----2-----2-|
|-0-----0-----0-----0-----0-----0-----0-----0-----0-----0-----0-----0-----0-----0-----0-----0----|

Guitar 2
|------------------------------------------------------10--------------------------------10----12|
|-10b12-10-8-----8--------------------------8-----10b12--10-8-10-8--------------10b12------------|
|-------------9-----------------9--7--9----------------------------------------------------------|
|------------------------------------------------------------------------------------------------|
|------------------------------------------------------------------------------------------------|
|------------------------------------------------------------------------------------------------|


Guitar 1
  E                            
|------------------------------------------------------------------------------------------------|
|------------------------------------------------------------------------------------------------|
|------------------------------------------------------------------------------------------------|
|----------2-----2-----2-----------2-----2-----2-----------2-----2-----2-----------2-----2-----2-|
|----------2-----2-----2-----------2-----2-----2-----------2-----2-----2-----------2-----2-----2-|
|-0-----0-----0-----0-----0-----0-----0-----0-----0-----0-----0-----0-----0-----0-----0-----0----|

Guitar 2
|----10----------------10----12----12b14-12-10----12-------------------------------10-12-10------|
|----------12----10-12-------------------------------12----12----10-12----------12---------------|
|------------------------------------------------------------------------------------------------|
|------------------------------------------------------------------------------------------------|
|------------------------------------------------------------------------------------------------|
|------------------------------------------------------------------------------------------------|


Guitar 1
  E                            
|------------------------------------------------------------------------------------------------|
|------------------------------------------------------------------------------------------------|
|------------------------------------------------------------------------------------------------|
|----------2-----2-----2-----------2-----2-----2-----------2-----2-----2-----------2-----2-----2-|
|----------2-----2-----2-----------2-----2-----2-----------2-----2-----2-----------2-----2-----2-|
|-0-----0-----0-----0-----0-----0-----0-----0-----0-----0-----0-----0-----0-----0-----0-----0----|

Guitar 2
|-14b16-14----12-------14b16-14-12----------------------7----------------------------------------|
|----------------------------------14b15-14-12----7b9------7b9---7b9---7b9---7-----5-----7----7b9|
|-------------------------------------------------------------------------------7----------------|
|------------------------------------------------------------------------------------------------|
|------------------------------------------------------------------------------------------------|
|------------------------------------------------------------------------------------------------|


Guitar 1
  E                            
|------------------------------------------------------------------------------------------------|
|------------------------------------------------------------------------------------------------|
|------------------------------------------------------------------------------------------------|
|----------2-----2-----2-----------2-----2-----2-----------2-----2-----2-----------2-----2-----2-|
|----------2-----2-----2-----------2-----2-----2-----------2-----2-----2-----------2-----2-----2-|
|-0-----0-----0-----0-----0-----0-----0-----0-----0-----0-----0-----0-----0-----0-----0-----0----|

Guitar 2
|------------------------------------------------------------------------------------------------|
|----7b9---7b9---7-----5-----5-----5-------------------------------------------------------------|
|-------------------7--------------------7-----6-----7-----6--9--7--6--7-----------------7-----9-|
|----------------------------------------------------------------------------7--6--7--6----------|
|------------------------------------------------------------------------------------------------|
|------------------------------------------------------------------------------------------------|


Guitar 1
  E                            
|------------------------------------------------------------------------------------------------|
|------------------------------------------------------------------------------------------------|
|------------------------------------------------------------------------------------------------|
|----------2-----2-----2-----------2-----2-----2-----------2-----2-----2-----------2-----2-----2-|
|----------2-----2-----2-----------2-----2-----2-----------2-----2-----2-----------2-----2-----2-|
|-0-----0-----0-----0-----0-----0-----0-----0-----0-----0-----0-----0-----0-----0-----0-----0----|

Guitar 2
|------------------------------------------------------------------------------------------------|
|----8-----10b12r10-8--8-------------------------------------------------------------------------|
|--------------------7---------------------------------------------------------------------------|
|------------------------------------------------------------------------------------------------|
|------------------------------------------------------------------------------------------------|
|------------------------------------------------------------------------------------------------|

Comments