Croce Jim - Age Chords & Tabs

 

Age Chords & Tabs

Croce Jim Chords & Tabs

Version: 1 Type: Tab 0 ratings
1 star 2 stars 3 stars 4 stars 5 stars
comments

Age Tab

   
[Intro]

    D

E:----------2-----3^2---0----
B:-------3----3-------3---3--
G:-----2---------------------
D:--0-------------0----------
A:---------------------------
E:---------------------------

    A

E:--0-------0----0-------0---
B:-----2-------2----2------2-
G:-------2------------2------
D:---------------------------
A:--0------------0-----------
E:---------------------------

    G6

E:--0----------------0-------
B:-----1----1---1-------1----
G:-------0----0----0------0--
D:---------------------------
A:---------------------------
E:--3-----------3------------

    Dsus2        Asus2

E:-------0-------0---------0-
B:--3-------3----0v2---2>3---
G:-----2------2------2-------
D:--0------------------------
A:---------------0-----------
E:---------------------------

    D

E:----------2-----3^2---0----
B:-------3----3-------3---3--
G:-----2---------------------
D:--0-------------0----------
A:---------------------------
E:---------------------------

    A
[ Tab from: http://www.guitartabs.cc/tabs/c/croce_jim/age_tab.html ]
E:--0-------0----0----0--0---
B:-----2-------2----2--2-----
G:-------2-----------2--2----
D:---------------------------
A:--0------------0-----------
E:---------------------------

    G6

E:--0----------------0-------
B:-----1----1---1-------1----
G:-------0----0----0------0--
D:---------------------------
A:---------------------------
E:--3-----------3------------

    Dsus2        Asus2

E:-------0-------0---------0-
B:--3-------3----0v2---2>3---
G:-----2------2------2-------
D:--0------------------------
A:---------------0-----------
E:---------------------------


[Solo]

*This part should be played with a steel guitar.
But just slide and vibrato as much as you can with your finger.


E:--10--9-7-----7------------
B:----------10----10-8-7-----
G:---------------------------
D:---------------------------
A:---------------------------
E:---------------------------

E:--10--9-7-----7------------
B:----------10----10-8-7-----
G:---------------------------
D:---------------------------
A:---------------------------
E:---------------------------

E:---7----------10-----------
B:------10---7--7------------
G:---------9-7--7------------
D:---------------------------
A:---------------------------
E:---------------------------
Comments