Cro-mags - Hard Times Chords & Tabs

 

Hard Times Chords & Tabs

Cro-mags Chords & Tabs

Version: 1 Type: Tab

Hard Times Tab

Artist: Cro-Mags
Song: Hard Times
e-mail: iamtheowl133@aol.com


e|--------------------------------------------------------------------------|
B|--------------------------------------------------------------------------|
G|--------------------------------------------------------------------------|
D|-------------------9------------------------------------------------------|
A|--2--4--5--3-------7--4--5--3---------------------------------------------|
E|--0--2--3--1----------2--3--1---------------------------------------------|

 Listen to the song how many times to play each chord and when you gotta palm-mute

e|--------------------------------------------------------------------------|
B|--------------------------------------------------------------------------|
G|--------------------------------------------------------------------------|
D|--------------------------------------------------------------------------|
A|--5--8--5--6--------------------------------------------------------------|
E|--3--6--3--4---(2x)-------------------------------------------------------|
[ Tab from: http://www.guitartabs.cc/tabs/c/cro_mags/hard_times_tab.html ]
   Hard times hard times seems I'm ...

e|--------------------------------------------------------------------------|
B|--------------------------------------------------------------------------|
G|--------------------------------------------------------------------------|
D|--------------------------------------------------------------------------|
A|--2--4--5--3--------------------------------------------------------------|
E|--0--2--3--1--------------------------------------------------------------|

   Play four times and on the fourth time
                                     hang on to the last chord!

e|--------------------------------------------------------------------------|
B|--------------------------------------------------------------------------|
G|--------------------------------------------------------------------------|
D|--------------------------------------------------------------------------|
A|--2--4--5--4--5--3--3-----------------------------------------------------|
E|--0--2--3--2--3--1--1-----------------------------------------------------|

  Play this at the end of the song