Crimzon - The Damned Chords & Tabs

 

The Damned Chords & Tabs

Crimzon Chords & Tabs

Version: 1 Type: Tab 0 ratings
1 star 2 stars 3 stars 4 stars 5 stars
comments

The Damned Tab

   
#----------------------------------PLEASE NOTE---------------------------------#
#This file is the author's own work and represents their interpretation of the #
#song. You may only use this file for private study, scholarship, or research. #
#------------------------------------------------------------------------------##
Date: Wed, 13 Sep 95 18:58:18 -0700
From: Nathan Perlis 

this is called The Damned
it is by a new band called 'crimzon'
e-mail=nathan.perlis@keroppi.yonet.org
homepage for crimzon-
http://www.homeless.com/homepages/puppateer@powerwindows.com.html
please put in a new directory ' crimzon '
enjoy

it starts off with heavy bar chords
[ Tab from: http://www.guitartabs.cc/tabs/c/crimzon/the_damned_tab.html ]
E---6-6--------6-6--------------------|
a---8-8--------8-8--------------------|
d---8-8--rake--8-8--------------------|
g---x-x--------0-0--------------------|
b---x-x--------0-0--------------------|
e---x-x--------0-0--------------------|


That was the intro.that leads into the very similar verse

E--6-6---6-6--|-x---x---4--------|
a--8-8-r-8-8--|-6---4---6--------|
d--8-8-a-8-8--|-8---6---6--------|
g--x-x-k-x-x--|-8---6---x--------|
b--x-x-e-x-x--|-x---x---x--------|
e--x-x---x-x--|-x---x---x--------|

that is the jist of the verse I wont write out all the licks they are fairly
easy to figure out

here is the chorus I will write out the name of the bar chords if you do
not know what they are check out alt.guitar (newsgroup)

CHORUS
------

b b, f#, e, d, a
b b, f#, e, a (12th fret), b

repeat many times

----------------------------------------------------------------------
that is the whole song accept for the solo which will be posted later!


---------------------------------12760110918939--
Comments