Crimson Moonlight - Thy Wilderness Chords & Tabs

 

Thy Wilderness Chords & Tabs

Crimson Moonlight Chords & Tabs

Version: 1 Type: Tab 0 ratings
1 star 2 stars 3 stars 4 stars 5 stars
comments

Thy Wilderness Tab

Okay, since you wanted info on the band: Crimson Moonlight is a Christian black metal
band, their website is http://www.crimsonmoonlight.com/cm/ and it has got quite some info.
[ Tab from: http://www.guitartabs.cc/tabs/c/crimson_moonlight/thy_wilderness_tab.html ]
-------------------------------------------------------------------------------
     Thy Wilderness - Crimson Moonlight
-------------------------------------------------------------------------------
Tabbed by: Ronald Teune
Email: zeekoe2 hetnet nl
              ^      ^
              @      .
This is tabbed from listening to the end of the song (@5:40 or so), but the
beginning of the song uses about the same melodies. The melody line consists
of a few different parts; with the tab shown below you should be able to
figure out most of it, at least of the ending part.

e|-------------0---|-------1-3-1-3-4-|-------------0---|-----1-----------|
B|-----3-----------|-----2-----------|-----3-----------|-------------4---|
G|---2---2---2---2-|---1-------------|---2---2---2---2-|---2---2---------|
D|-0-------0-------|-3---------------|-0-------0-------|-0---------6-----|
A|-----------------|-----------------|-----------------|---------4-------|
E|-----------------|-----------------|-----------------|-----------------|

***************************************************************************************
* Generated using Power Tab Editor by Brad Larsen - http://powertab.guitarnetwork.org *
***************************************************************************************
Comments