Crimpshrine - Another Day Chords & Tabs

 

Another Day Chords & Tabs

Crimpshrine Chords & Tabs

Version: 1 Type: Bass Tab 0 ratings
1 star 2 stars 3 stars 4 stars 5 stars
comments

Another Day Bass Tab

Another Day
     by: Jeremiah
verse 1
G------------------------------------------------------------------------
D------------------------------------------------------------------------
A---7---4----------------------------------------------------------------
E-5---5------------------------------------------------------------------

verse 2
G----------6-4------------------9----------------------------------------
D--------------6--------11-9-11------------------------------------------
A-----7-4-------------7--------------------------------------------------
E-5-7-------------5-7----------------------------------------------------
  \      x3    /

chorus
G------------------------------------------------------------------------
D------------------------------------------------------------------------
A-7-7-7-7-7-7-7-7---------------------------------------------------6-7--
E-----------------7-7-7-7-5h7-5h7-5h7-5-5-5-4h5-4h5-4h5-7-7-7-7-7-9------

bridge
G-------------------7h9-----------7----7---------------------------------
D---------------7h9-----------------t9---t9-7----------------------------
A-----------7h9----------------------------------------------------------
E-5-5-5-5-7-------------5-5-5-5-7----------------------------------------
[ Tab from: http://www.guitartabs.cc/tabs/c/crimpshrine/another_day_btab.html ]
G-----------7h9-7--------------------------------------------------------
D-----------------9-7----------------------------------------------------
A------------------------------------------------------------------------
E-5-5-5-5-7-----------5-5-5-5-7-7-7-7------------------------------------

G------------------------------------------------------------------------
D--------------------6-7-9-7-6-------------------------------------------
A---------------9-9------------9-----------------------------------------
E-5-5-5-5-5-5-5----------------------------------------------------------

G-----------------------------------9-7----------------------------------
D---------------------7-------9-7h9--------------------------------------
A---------------9-7h9---9-7h9--------------------------------------------
E-5-5-5-5-5-5-5----------------------------------------------------------

G--------------------------------------------14h16-----------------------
D-----------------------------12h14-16-14h16-----------------------------
A-----------------------12h14--------------------------------------------
E-5-5-5-5-5-5-5-7-12h14--------------------------------------------------

G------------------------------------------------------------------------
D------------------------------------------------------------------------
A-------------------------6-7--------------------------------------------
E-5-5-5-5-5-5-5-7-7-7-7-7-----------------------------------------------

I didn't write this tab so don't blame me if it's wrong, and if you would like
more Crimpshrine Bass and Guitar Tabs, go to there official website.
Comments