Crematory - Visions Chords & Tabs

 

Visions Chords & Tabs

Crematory Chords & Tabs

Version: 1 Type: Tab 0 ratings
1 star 2 stars 3 stars 4 stars 5 stars
comments

Visions Tab

CREMATORY:
__________
visions (outro)from the album illusions
 
this track is orginally set for keyboard,but because I play both guitar and 
keyboard so it was easy to figure it out on guitar,its a great instrumental 
piece.

the repeating rhythm:
_____________________


----------|----------|----------|----------|
----------|----------|----------|----------|
----------|----------|----------|----------|
---7---7-8|-10-8---8-|-7--------|-7--7-----|
-----8----|------7---|---8------|-5--5-----|
----------|----------|----------|----------|



----------|----------|----------|----------|
----------|----------|----------|----------|
----------|----------|----------|----------|
----------|-7--8-7---|-8-7------|-5--------|
--5--8----|--------8-|-----8----|-3--------|
----------|----------|----------|----------|

[ Tab from: http://www.guitartabs.cc/tabs/c/crematory/visions_tab.html ]
----------|----------|----------|----------|
----------|----------|----------|----------|
----------|----------|----------|----------|
---2-3--5-|--3-2--5--|-3-2------|-5-6-5----|
-3--------|----------|----------|-------6--|
----------|----------|----------|----------|
                                /-repeat- it alot try hearing the song to get the
                                 right tempo for it-/

the accoustic solo 
__________________

----------|----------|----------|----------|
----------|----------|----------|----------|
----------|----------|----------|----------|
-5--7-7--5|-7-3-5/7--|-5--3-2---|-3--3-2-3-|
----------|----------|----------|----------|
----------|----------|----------|----------|


----------|----------|----------|----------|
----------|----------|----------|----------|
---7---5--|---3---2--|-3--5-----|----------|
-0---0----|-0---0----|----------|----------|
----------|----------|----------|----------|
----------|----------|----------|----------|



thats the whole thing enjoy it
tabbed by "Abdullatif" and of course any correction you can send me at gutted17@hotmail.com
Email me if you want any song for crematory and I'll try very hard to tab it,and email me if 
you want the tab of tears of time or you can wait for two weeks when I send it on the net!
Comments