Creedence Clearwater Revival - Up Around The Bend Chords & Tabs

 

Up Around The Bend Chords & Tabs

Creedence Clearwater Revival Chords & Tabs

Version: 4 Type: Tab 0 ratings
1 star 2 stars 3 stars 4 stars 5 stars
comments

Up Around The Bend Tab

By:  Jay Baird

E-----10-------------10--------------5-----------10-------------|
B---7----10-7-10---7----10-7-10----2---5-2-5---7----10-7-10-----|
G---------------------------------------------------------------|
D-0--------------0---------------------------0------------------|
A--------------------------------0------------------------------|
E---------------------------------------------------------------|
play twice for intro.          INTRO


theres a place up ahead..
E-----------------------------------------------------7-9^-7----------------|
B-77---77---77---77---7-9-7--77---77---77---77---77-------------------------|
G----5----5----5----5-----------5----5----5----5----5-----------------------|
D---------------------------------------------------------------------------|
A---------------------------------------------------------------------------|
E---------------------------------------------------------------------------|
verse- probably a little wrong.. but should be a good guide at least.

E--------------------------------------------------------------------------|
B--------------------------------------------------------------------------|
G--------------------------------------------------------------------------|
D--7-7-7-7-7-7------------------------7-7-7--------------------------------|
A--7-7-7-5-5-5-7-7-7-7-7-7-7-7--7-7-7-5-5-5-7-7-7-7-7-7-7-7-7-7-7-7-7-7----|
E--5-5-5-------5-5-5-5-5-5-5-5--5-5-5-------5-5-5-5-5-5-5-5-5-5-5-5-5-5----|
Chorus-come on rsing wind put up round the bend part
[ Tab from: http://www.guitartabs.cc/tabs/c/creedence_clearwater_revival/up_around_the_bend_tab_ver_4.html ]
E-----2---3---5------2---3---5-------2---3---5----2-----------------|
B-------------------------------------------------------------------|
G-------------------------------------------------------------------|
D-------------------------------------------------------------------|
A-------------------------------------------------------------------|
E-------------------------------------------------------------------|

E----2---3---5------2---3----5-----2-------------------------------|
B-----------------------------------------3------------------------|
G------------------------------------------------------------------|
D------------------------------------------------------------------|
A------------------------------------------------------------------|
E------------------------------------------------------------------|
heres another part played in song. listen to song to hear when.

E----------------------------------------------------------------|
B----------------------------------------------------------------|
G----------7-9b11-9p7----------9-6-------------------------------|
D------7h9------------9-7-9b11-----9-7---------------------------|
A--10------------------------------------------------------------|
E----------------------------------------------------------------|

E----------------------------------------------------------------------|
B----------------------------------------------------------------------|
G----------7-9b11-9p7----------9-6-------------------------------------|
D------7h9------------9-7-9b11-----9-7^׹b11-11-11b9-7------------|
A--10------------------------------------------------------------------|
E----------------------------------------------------------------------|
guitar solo


E------5-----5-----5---------------5-----5-----------------------|
B--6-7---6-7---6-7---7---------5-7---5-7---7---------------------|
G--------------------------------------------7-------------------|
D----------------------------------------------------------------|
A----------------------------------------------------------------|
E----------------------------------------------------------------|
fade out at end of song.
Comments