Creedence Clearwater Revival - Up Around The Bend Chords & Tabs

 

Up Around The Bend Chords & Tabs

Creedence Clearwater Revival Chords & Tabs

Version: 1 Type: Tab 4 ratings
1 star 2 stars 3 stars 4 stars 5 stars
comments

Up Around The Bend Tab

   
The intro in the first tab by MENDE JOVESKI is done to perfection, thank you.  
I noticed the solo isn't in it and I found that after I moved a couple of chords around, 
it plays perfectly with the song.

intro

E---------------10-------------------------------10---------------------
B--------------------10------10----------------------10--------10-----
G-------9/11------------11--------------9/11-------------11----------
D---0---------------------------------0--------------------------------
A-----------------------------------------------------------------------
E----------------------------------------------------------------------


E------------------5-----------------------------10--------------------
B---------------------5--------5----------------------10--------10---
G-----------4/6----------6---------------9/11-------------11---------
D------------------------------------0----------------------------------
A-----0-----------------------------------------------------------------
E----------------------------------------------------------------------


D
Theres a place up ahead and I'm going 
A                                       D
just as fast as my feet can fly
D
Come away come away if you're going
A                         D
Leave the sinking ship behind

CHORUS:
G           D      A
Come on the rising wind
G              D          A              
We're going up around the bend
[ Tab from: http://www.guitartabs.cc/tabs/c/creedence_clearwater_revival/up_around_the_bend_tab.html ]
Bring a song and a smile for the banjo
Better get while the getting's good
Hitch a ride to the end of the highway
Where the neons turn to wood

CHORUS
(repeat intro twice and then have one guitar strum chorus chords 
and one do the solo)

D-----------------------------------------------------------------------
A-----------------------------------------------------------------------
F-----------7^9--9-7-------------9-----------------7^9-9-7--------------
C------7h9-----------9-7~--9/11-----11--97----7h9---------9-7~--9/11---
G--10---------------------------------------9---------------------------
D-----------------------------------------------------------------------

D-----------------------------------------------------------------------
A-----------------------------------------------------------------------
F--9--------------------------------------------------------------------
C-----11--97bbbb-7~~---------------------------------------------------
G-----------------------------------------------------------------------
D-----------------------------------------------------------------------

Oooh  Catch a ride to the end of the highway
And we'll meet by the big red tree
There's a place up ahead and I'm going 
Come along come along with me

CHORUS

D--2-3-5--2-3-5--2-3-5--2------2-5----2-5-----------------------
A--------------------------------5-------5-------3--------------------
F-----------------------------------------------------------------------
C-----------------------------------------------------------------------
G-----------------------------------------------------------------------
D----------------------------
Comments