Creedence Clearwater Revival - Run Through The Jungle Chords & Tabs

 

Run Through The Jungle Chords & Tabs

Creedence Clearwater Revival Chords & Tabs

Version: 1 Type: Tab 0 ratings
1 star 2 stars 3 stars 4 stars 5 stars
comments

Run Through The Jungle Tab

 --------------
 --3----3------
 --2----2------
 --0----0------
 --------------
 --------------
 --------------


e    -------------------|---------------------------|---------------
B    ---------1------3--|---------------------------|-----1-------3-
G    ------------2------|-1---0---------------------|---------2-----
D    -------------------|--------3---0------------0-|---------------
A    -------------------|----------------0----3-----|---------------
E    -----0-------------|---------------------------|--0------------

------1-----------------|-----------------------------------------
--3---1---3--------1---3|------1--------3-------------------------
--2-------2----2--------|---------2---------1--0------------------
------------------------|-------------------------3--0--------0---
------------------------|-------------------------------0--3------
------------------------|--0--------------------------------------
[ Tab from: http://www.guitartabs.cc/tabs/c/creedence_clearwater_revival/run_through_the_jungle_tab.html ]
--------------------------1------------------------------------------
--------1-------3---3-----1----3----3--------1---3-------1--------3--
--------2-------2---2-----2----2----2-----2------------------2-------
---0-----------------------------------------------------------------
---------------------------------------------------------------------
-----------------------------------------------------0---------------

play the little rhythm figure right here(on top)
----------------------------*-----------------------------------
-------------------------------1-------3-----------------------
-----1--0--------------------------2-------1--0----------------
-----------3--0--------0-------------------------3--0-------0--
-----------------0--3---------------------------------0--3-----
----------------------------0----------------------------------

whoa! thought it was night
thought i heard a rum

---1------------------------------------1-----------------------------
---------3-------1--3--3----------------------3-------3--(3)--1-------
---2-----2----2-------------------------2--------2---------------2----
----------------------------------------------------------------------
----------------------------------------------------------------------
0-------------------------0---3b----0---------------------------------


this is as far as i got but ill find out the rest and post it
Comments