Creedence Clearwater Revival - Proud Mary Chords & Tabs

 

Proud Mary Chords & Tabs

Creedence Clearwater Revival Chords & Tabs

Version: 1 Type: Tab 0 ratings
1 star 2 stars 3 stars 4 stars 5 stars
comments

Proud Mary Tab

   
Creedence clearwater revival, Proud Mary.
Tabbed by Lukas Payro, Rubbersoul200@hotmail.com.
  
Title: Proud Mary
Artist: Creedence Clearwater Revival
Tuning: standard
Tabbed by: Luke Payro
Email: Rubbersoul200@hotmail.com

                     Proud Mary
           Creedence Clearwater Revival
                    J.C. Fogerty
                   

Intro-C A, C A, C A G F D

Left a good job in the city
Working for the man every night and day
And i never lost one minute of sleepin'
Worrying about the way things might have been

Big Wheels keep on turning
Proud mary keep on burning
Rollin' Rollin' Rollin' on the river

(intro)

Cleaned alot of plates in memphis
Pumped alot of pain down in New Orleans
But I never saw the good side of the city
Till I hitched a ride on the river boat queen

Big wheels a-keep on turning
Proud mary keep on burning

Rollin'  Rollin'Rollin on the river

(intro)

If you come down to the river
Bet you're gonna find some people who live
You don't have to worry
Cause you have no money
People on the river are happy to give

Big wheels a-keep on turning
Proud mary keep on burning

Rollin' Rollin' Rollin' on the river


well that my friend is the words and the chords 
Here is the solo
[ Tab from: http://www.guitartabs.cc/tabs/c/creedence_clearwater_revival/proud_mary_tab.html ]
------------------------------------------
------------------------------------------
---------------------7--8---7------------
-------------7-------7--7---7------------
------7--9---7---7---7--9---7------------
-7--9------------------------------------

-----------------------------------------
-7--7--7--8--7--8--7--8--7---------------
-7--7--7--7--7--7--7--7--7---------------
-7--7--7--9--7--9--7--9--7---------------
-----------------------------------------
-----------------------------------------

-------------------8--10--10--10--10--8---------
--8--7-------------8--11------11--11--9--7------
--7--7--------7--7-------------------------9--7-
--9--7--7--7--7--7------------------------------
-----------9------------------------------------
------------------------------------------------

------------------------------------------------
------------------------------------------------
-------------------7--8--7----------------------
-------------7-----7--7--7----------------------
-------7--9--7--7--7--9--7----------------------
-7--7-------------------------------------------

--7-----7--8--7-----8--7------------------------
--7-----7--7--7-----7--7------------------------
--7--7--7--9--7--7--9--7------------------------
------------------------------------------------
------------------------------------------------
------------------------------------------------

Well thats proud mary I hope it does y'all some
good
send me comments, questions, tabs ya would like to 
see to.....Rubbersoul200@hotmail.com
 
:: Ultimate Guitar Archive :: 
http://www.ultimate-guitar.com 

Comments