Creedence Clearwater Revival - Proud Mary Chords & Tabs

 

Proud Mary Chords & Tabs

Creedence Clearwater Revival Chords & Tabs

Version: 1 Type: Bass Tab 0 ratings
1 star 2 stars 3 stars 4 stars 5 stars
comments

Proud Mary Bass Tab

Song Title: Proud Mary
Artist: Creedence Clearwater Revival
----------------------------------------------

Creedence Clearwater Revival - "Proud Mary" - Bass Tab

Intro:
|-----------------|-----------------|-----------------|-------------|
|-----------------|-----------------|-----------------|-------------|
|-3-3-3-0---0-0-0-|-3-3-3-0---0-0-0-|-3-3-3-----------|-------------|
|-----------------|-----------------|-------5---3---1-|-r-1-1-1-3-5-|
  1 & 2 & 3 & 4 &   1 & 2 & 3 & 4 &   1 & 2 & 3 & 4 &   1 & 2 & 3 4

Verse:
|---------------|
|---------------|
|---------------| (x9)
|-3-----3-3-3---|
  1 & 2 & 3 & 4

Pre-Chorus:
|-----------------|
|-------------2-3-|
|---------3-5-----|
|-3-----3---------|
  1 & 2 & 3 & 4 &
[ Tab from: http://www.guitartabs.cc/tabs/c/creedence_clearwater_revival/proud_mary_btab.html ]
Chorus:
|-------------|-------------|-------------|-------------|
|-------------|-------------|-2---2-2---2-|-2---2-2---2-|
|-5---5-5---5-|-5---5-5---5-|-------------|-------------|
|-------------|-------------|-------------|-------------|
  1 2 & 3 4 &   1 2 & 3 4 &   1 2 & 3 4 &   1 2 & 3 4 &

|---------------|---------------|---------------|-----------------|
|---------------|---------------|---------------|-------------2-3-|
|---------------|---------------|---------------|---------3-5-----|
|-3-3---3-3-3---|-3-3---3-3-3---|-3-3---3-3-3---|-3-3---3---------|
  1 & 2 & 3 & 4   1 & 2 & 3 & 4   1 & 2 & 3 & 4   1 & 2 & 3 & 4 &

Verse(x7)
Pre-Chorus
Chorus
Chord Solo: Intro, Verse(x9),Pre-Chorus, Chorus, Intro
Verse(x9)
Chorus

Submitted by:  Johari Taylor (viking@powerup.com.au)


Comments