Creedence Clearwater Revival - Lodi Chords & Tabs

 

Lodi Chords & Tabs

Creedence Clearwater Revival Chords & Tabs

Version: 2 Type: Tab 0 ratings
1 star 2 stars 3 stars 4 stars 5 stars
comments

Lodi Tab

   
Lodi by: Creedence Clearwater Revival

Tab by: Aaron Meredith & Co.


/ = slide up
\ = slide down
x = mute string
h = hammer-on
p = pull-off
b = bend string



Chords used: first part

     (Bb)   (Eb)    (Gm)   (F)    
e|-----6------x-------3------x------|
B|-----6------8-------3-----10------|
G|-----7------8-------3-----10------|
D|-----8------8-------5-----10------|
A|-----8------6-------5------8------|
E|-----6------x-------3------x------|


Intro: 

e|------------------------------------------------------------|
B|--3--3--4--4/6--6--6\----3--3-4h-4--4-4--4-3----------------|
G|--3--3--5--5/7--7--7\----3--3-5h-5--5-3p-3-3----------------|
D|-----------------------------------------5-3---3-5h-3---3---|
A|------------------------------------------------------5-----|
E|----------------------------------------------------------6-|


Bb
Just about a ...
  Eb             Bb
I set out ...
Bb                  Gm
seekin' my ...
Eb                   F
lookin' for a ....
Bb                 Gm         Bb/F
Things got bad and ...
  Eb                      Bb
I guess you will ...

         F                Eb        Bb
Oh Lord, stuck in ....




Lead Riff:

e|------------------------------------------------------------------|
B|------------------------------------------------------------------|
G|-------3--5--5b-----5-3p----3-------------------------------------|
D|---3-5h------------------5-----------3-5h-3----3------------------|
A|---------------------------------------------5--------------------|
E|-------------------------------------------------6----------------|


I rode in on a .....

e|------------------------------------------------------------------|
B|------------------------------------------------------------------|
G|-------3--5--5b-----5-3p----3-------------------------------------|
D|---3-5h------------------5-----------3-5h-3----3------------------|
A|---------------------------------------------5--------------------|
E|-------------------------------------------------6----------------|

Small variation of intro here:

e|--------------------------------------------------------------|
B|--3--3--4--4/6--6--6\----3--4--4----4-----------------3-3-----|
G|--3--3--5--5/7--7--7\----3--3--3-5h-3---3----3--------3-3-----|
D|----------------------------------------3-5h-3---3-5h-----5---|
A|--------------------------------------------------------------|
E|--------------------------------------------------------------|
[ Tab from: http://www.guitartabs.cc/tabs/c/creedence_clearwater_revival/lodi_tab_ver_2.html ]
Intro follows again:
e|------------------------------------------------------------|
B|--3--3--4--4/6--6--6\-----3--3-4h-4--4-4--4--3--------------|
G|--3--3--5--5/7--7--7\-----3--3-5h-5--5-3p-3--3--------------|
D|------------------------------------------5--3--3-5h-3---3--|
A|-------------------------------------------------------5----|
E|----------------------------------------------------------6-|



The man from the ....

e|---------------------------------|
B|---------------------------------|
G|-------3--5--5b---5-3p----3------|
D|---3-5h----------------5---------|
A|---------------------------------|
E|---------------------------------|

Bridge:
e|--------------------------------------------------------|
B|-------1-3h-1------------1-------1-----1-0p-1---1-0p-0--|
G|-2-3h--2-2--2-2----------0-------0-----0----0---0----0--|
D|-3-3----------3-----0-2h-2--0-2h-2-----2-0p-0---2-0p-0--|
A|--------------------3-3-----3-3-------------------------|
E|---------------------------------------3--------3-------|
                                                             



Chords used: second part

    (C)    (F)    (Am)   (G)
e|----0------1------0------3-----|
B|----1------1------1------3-----|
G|----0------2------2------0-----|
D|----2------3------2------0-----|
A|----3------3------0------2-----|
E|----x------1------x------3-----|

C
If I only ....
    F               C
For every ...
                    Am
And every time I've had to play...G
While people sat ....
    C                  Am
You know I'd catch ....
F               C
Back to where ....
C         G                F
Oh, Lord, stuck ...

e|--------------------------------------------------------------|
B|--------------------------------------------------------------|
G|-------5--7--7b---7-5p----5-----------------------------------|
D|---5-7h----------------7------------7--5----5-----------------|
A|-----------------------------------------7--------------------|
E|--------------------------------------------------------------|

C         G                F
Oh, Lord, Stuck in on ...

e|-------------------------------------------------------------|
B|-------------------------------------------------------------|
G|--------5--7--7b---7-5p---5----------------------------------|
D|---5-7h-----------------7--------5-7h-5----5-----------------|
A|----------------------------------------7--------------------|
E|----------------------------------------------8--------------|

Small variation again:
e|----------------------------------------------------------|
B|--5--5--6--6/8--8--8\---5--6--6-6--6----------------------|
G|--5--5--7--7/9--9--9\---5--5--5-7h-7--5-5--5--------------|
D|--------------------------------------5-7h-5---5-7h-5---5-|
A|---------------------------------------------7--------7---|
E|----------------------------------------------------------|

Intro follows again:
e|----------------------------------------------------------|
B|--5--5--6--6/8--8--8\---5--6--6--6----6---5---------------|
G|--5--5--7--7/9--9--9\---5--7--7--7-5p-5---5---------------|
D|--------------------------------------7---5---5-7h-5----5-|
A|--------------------------------------------7--------7----|
E|----------------------------------------------------------|
Comments