Creedence Clearwater Revival - It Came Out Of The Sky Chords & Tabs

 

It Came Out Of The Sky Chords & Tabs

Creedence Clearwater Revival Chords & Tabs

Version: 1 Type: Tab 0 ratings
1 star 2 stars 3 stars 4 stars 5 stars
comments

It Came Out Of The Sky Tab

                         INTRO:
e]-----------------------------------][-------------------------------------]
A]-8>10--10--10--10--10--10--10--10--][-8>10--10--10--10>8--7-----7--7-----7]
D]-9>11--11--11--11--11--11--11--11--][-9>11--11--11--11>9--7--9--7--7--9--7]
G]-----------------------------------][-------------------------------------]
B]-----------------------------------][-------------------------------------]
E]-----------------------------------][-------------------------------------]
[ Tab from: http://www.guitartabs.cc/tabs/c/creedence_clearwater_revival/it_came_out_of_the_sky_tab.html ]
[-----------------------------]
[--7-----7--7-----7--7-----7--]
[--7--9--7--7--9--7--7--9--7--]
[-----------------------------]
[-----------------------------]
[-----------------------------]
                      -Tabs for the entire song-
EX: Oh, it came out of the sky, landed just a little south of moline.
      (In between each verse John Fogerty would play something like)
[--------------------------------------]
[------7--7-----7--7-----7--7-----7----]
[---9--7--7--9--7--7--9--7--7--9--7----]
[--------------------------------------]
[--------------------------------------]
[--------------------------------------]
but however you play it it sounds good if it fits including when he uses the intro again
10--10--10--10>8--7-----7--7
11--11--11--11>9--7--9--7--7 -and so on
Comments