Creedence Clearwater Revival - Hey Tonight Chords & Tabs

 

Hey Tonight Chords & Tabs

Creedence Clearwater Revival Chords & Tabs

Version: 1 Type: Bass Tab 0 ratings
1 star 2 stars 3 stars 4 stars 5 stars
comments

Hey Tonight Bass Tab

   
Creedence Clearwater Revival - Hey Tonight
Tabbed by Meti (meti_kana@hotmail.com)

Standard Tuning

Guitar Intro

on E play

G|-----------------|
D|-2-2-2-2-2-2-----|
A|-------------4-2-|
E|-----------------|

on A play


G|-----------------|
D|-----------------|
A|-----------------|
E|-5-5-5-5-5-5-5-5-|

Bridge:

G|--------------------------------------------------------------|
D|-----1-1-2-2-4-4-6-6-7-7-8-8-9h11-7-7-6-6-4-4-----1-1-4-4-6-4-|
A|-2-2-----------------------------------------2-2--------------|
E|--------------------------------------------------------------|

G|--------------------------------------------------------------|
D|-----1-1-2-2-4-4-6-6-7-7-8-8-9h11-7-7-6-6-4-4-2-2-0-0---------|
A|-2-2--------------------------------------------------4-4-2-2-|
E|--------------------------------------------------------------|

second playing the bridge play the same plus:

G|-----------------|
D|-2-2-0-0---------|
A|---------4-4-2-2-|
E|-----------------|

Verse 1:

6 bars E
2 bars A
2 bars E

Verse 2:
4 bars E
2 bars A
2 bars E

Bridge

Verse 3:
4 bars E
2 bars A
2 bars E
[ Tab from: http://www.guitartabs.cc/tabs/c/creedence_clearwater_revival/hey_tonight_btab.html ]
Instrumental Part:
4 bars E
2 bars A
2 bars E
2 bars A
2 bars E

Bridge

Verse 4:
6 bars E
2 bars A
2 bars E
2 bars A
2 bars E

(Fade on E)

-------------------

With lyrics:

Verse 1:

E
Hey, Tonight,
Gonna be tonight,
Don't you know I'm flyin'
  A        E
Tonight, tonight.

Verse 2:

E
Hey, c'mon,
Gonna chase tomorrow
  A        E
Tonight, tonight.

Bridge:

Gonna get it to the rafters, watch me now.
Jody's gonna get religion all night long.

Verse 3:

E
Hey, c'mon,
Gonna hear the sun
  A        E
Tonight, tonight.

Instrumental Part:
4 bars E
2 bars A
2 bars E
2 bars A
2 bars E

Gonna get it to the rafters, Watch me now.
Jody's gonna get religion all night long.
Aaaah!

Verse 4:

E
Hey, Tonight,
Gonna be tonight,
Don't you know I'm flyin'
  A        E
Tonight, tonight.
  A        E
Tonight, tonight.


(Fade on E)

The Bridge isn't exactly the same as on the CCR record, but it gets pretty close, i
think and you can play it without hitting notes which don't fit. Arrangement is 100%
correct. For comments etc. meti_kana@hotmail.com
Comments