Creedence Clearwater Revival - Have You Ever Seen The Rain Chords & Tabs

 

Have You Ever Seen The Rain Chords & Tabs

Creedence Clearwater Revival Chords & Tabs

Version: 4 Type: Bass Tab 0 ratings
1 star 2 stars 3 stars 4 stars 5 stars
comments

Have You Ever Seen The Rain Bass Tab

*-------------------------------------------------------------------*
| Artist:    Creedence Clearwater Revival [CCR]                     |
| Title:     Have You Ever Seen The Rain?                           |
| Tabbed by: vi3x                                                   |
| Notes:     Slight rythm variations in the 2nd chorus [not tabbed] |
*-------------------------------------------------------------------*

INTRO

G|----------|-2-0---------|-------5-4--2--0-0-|
D|----------|-----2--2----|-------------------|
A|----------|-----------3-|-3--3--------------|
E|----------|---------3---|-------------------|


VERSE 1
             
G|-----------|-----------|-----------|----------|
D|--------/5-|--------/5-|--------/5-|------2-3-|
A|-3--3-3----|-3--3-3----|-3--3-3----|-3--3-----|
E|-----------|-----------|-----------|----------|

G|--------/7-|-------/7--|-----------|----------|
D|-55-5-5----|-55-5-5--5-|--------/5-|-------/5-|
A|-----------|-----------|-3--3-3----|-3--3-3---|
E|-----------|-----------|-----------|----------|

G|-----------|-----------|-----------|----------|
D|--------/5-|--------/5-|--------/5-|------2-3-|
A|-3--3-3----|-3--3-3----|-3--3-3----|-3--3-----|
E|-----------|-----------|-----------|----------|
[ Tab from: http://www.guitartabs.cc/tabs/c/creedence_clearwater_revival/have_you_ever_seen_the_rain_btab_ver_4.html ]
G|--------/7-|-------/7--|-----------|----------|
D|-55-5-5----|-55-5-5--5-|--------/5-|--------2-|
A|-----------|-----------|-3--3-3----|-3--3-3---|
E|-----------|-----------|-----------|----------|


CHORUS

G|----------|--------|-5--5-4--4-2--2-0--0-|
D|-3--3-3-3-|-5--5-5-|---------------------|
A|----------|--------|---------------------| x2, then
E|----------|--------|---------------------|

G|----------|--------|----------5-4--2--0-0-|
D|-3--3-3-3-|-5--5-5-|-----/5-/5------------|
A|----------|--------|-3--3-----------------|
E|----------|--------|----------------------|


VERSE 2

G|-----------|-----------|-----------|----------|
D|--------/5-|--------/5-|--------/5-|------2-3-|
A|-3--3-3----|-3--3-3----|-3--3-3----|-3--3-----|
E|-----------|-----------|-----------|----------|

G|--------/7-|-------/7--|-----------|-5-4--2--0-0-|
D|-5--5-5----|-5--5-5----|--------/5-|-------------|
A|-----------|-----------|-3--3-3----|-------------|
E|-----------|-----------|-----------|-------------|

G|-----------|-----------|-----------|----------|
D|--------/5-|--------/5-|--------/5-|------2-3-|
A|-3--3-3----|-3--3-3----|-3--3-3----|-3--3-----|
E|-----------|-----------|-----------|----------|

G|--------/7-|-------/7--|-----------|----------|
D|-55-5-5----|-55-5-5--5-|--------/5-|------2-2-|
A|-----------|-----------|-3--3-3----|-3--3-----|
E|-----------|-----------|-----------|----------|


CHORUS x2 --> BUT ENDS WITH THIS:

G|-5-4--2--0-0---|
D|---------------|
A|-------------3-|
E|---------------|
Comments