Creedence Clearwater Revival - Have You Ever Seen The Rain Chords & Tabs

 

Have You Ever Seen The Rain Chords & Tabs

Creedence Clearwater Revival Chords & Tabs

Version: 2 Type: Bass Tab 0 ratings
1 star 2 stars 3 stars 4 stars 5 stars
comments

Have You Ever Seen The Rain Bass Tab

Song Title: Have You Ever Seen the Rain
Artist: Creedence Clearwater Revival
----------------------------------------------

Creedence Clearwater Revival - 
"Have You Ever Seen the Rain" - Bass Tab


Intro:
         (x3)
|----------|---------------|-----------|-5-4-----------|
|*--------*|-5-4---------4-|-5--5-5----|-------7---5---|
|*--------*|-------7---5---|-----------|-------------2-|
|--r-r-r-r-|---------------|-----------|---------------|
   1 2 3 4   1 & 2 & 3 & 4   1 2 & 3 4   1 & 2 & 3 & 4

Verse 1:
          (x3)                                                         
|-------------|-----------|---------7-|---------7-|-----------|
|*---------5-*|-------3-4-|-5---5-5---|-5---5-5---|---------5-|
|*-3---3-3---*|-3---3-----|-----------|-----------|-3---3-3---|
|-------------|-----------|-----------|-----------|-----------|
   1 2 & 3 4    1 2 & 3 4   1 2 & 3 4   1 2 & 3 4   1 2 & 3 4

|-----------|-----------|
|-----------|---------2-|
|-3---3-3---|-3---3-5---|
|-----------|-----------|
  1 2 & 3 4   1 2 & 3 4 

          (x3)                                                         
|-------------|-----------|---------7-|---------7-|-----------|
|*---------5-*|-------3-4-|-5---5-5---|-5---5-5---|---------5-|
|*-3---3-3---*|-3---3-----|-----------|-----------|-3---3-3---|
|-------------|-----------|-----------|-----------|-----------|
   1 2 & 3 4    1 2 & 3 4   1 2 & 3 4   1 2 & 3 4   1 2 & 3 4

|-----------|
|---------2-|
|-3---3-5---|
|-----------|
  1 2 & 3 4

Chorus:
                                                                  (x2)
|------------|-----------|-5---5-4---4-|-2---2--------|
|*-3---3-3---|-5---5-5---|-------------|-------5---5-*|
|*-----------|-----------|-------------|-------------*|
|------------|-----------|-------------|--------------|
   1 2 & 3 4   1 2 & 3 4   1 2 & 3 4 &   1 2 & 3 4 &
[ Tab from: http://www.guitartabs.cc/tabs/c/creedence_clearwater_revival/have_you_ever_seen_the_rain_btab_ver_2.html ]
|-----------|-----------|-----------|-5-4-----------|
|-3---3-3---|-5---5-5---|-------5-5-|-------7---5---|
|-----------|-----------|-3---3-----|-------------2-|
|-----------|-----------|-----------|---------------|
  1 2 & 3 4   1 2 & 3 4   1 2 & 3 4   1 & 2 & 3 & 4

Verse 2:
            (x3)                                                              
|-------------|-----------|---------7-|---------7-|-----------|
|*---------5-*|-------3-4-|-5---5-5---|-5---5-5---|---------5-|
|*-3---3-3---*|-3---3-----|-----------|-----------|-3---3-3---|
|-------------|-----------|-----------|-----------|-----------|
   1 2 & 3 4    1 2 & 3 4   1 2 & 3 4   1 2 & 3 4   1 2 & 3 4
        
|-5-4-----------|
|-------7---5---|
|-------------2-|
|---------------|
  1 & 2 & 3 & 4  

            (x3)                                                              
|-------------|-----------|---------7-|---------7-|-----------|
|*---------5-*|-------3-4-|-5---5-5---|-5---5-5---|---------5-|
|*-3---3-3---*|-3---3-----|-----------|-----------|-3---3-3---|
|-------------|-----------|-----------|-----------|-----------|
   1 2 & 3 4    1 2 & 3 4   1 2 & 3 4   1 2 & 3 4   1 2 & 3 4

|-----------|
|---------2-|
|-3---3-5---|
|-----------|
  1 2 & 3 4

Chorus:
                                                                  (x2)
|------------|-----------|-5---5-4---4-|-2---2--------|
|*-3---3-3---|-5---5-5---|-------------|-------5---5-*|
|*-----------|-----------|-------------|-------------*|
|------------|-----------|-------------|--------------|
   1 2 & 3 4   1 2 & 3 4   1 2 & 3 4 &   1 2 & 3 4 &  ______
                                                                     |end.
|-----------|-----------|-----------|---------------|---------|
|-3---3-3---|-5---5-5---|-------5-5-|---------------|---------|
|-----------|-----------|-3---3-----|-3-2---------2-|-3-------|(x2)
|-----------|-----------|-----------|-------5---3---|---------|
  1 2 & 3 4   1 2 & 3 4   1 2 & 3 4   1 & 2 & 3 & 4   1 2 3 4


Submitted by:  Johari Taylor (viking@powerup.com.au)



Comments