Creedence Clearwater Revival - Green River Chords & Tabs

 

Green River Chords & Tabs

Creedence Clearwater Revival Chords & Tabs

Version: 2 Type: Bass Tab 0 ratings
1 star 2 stars 3 stars 4 stars 5 stars
comments

Green River Bass Tab

CREEDENCE CLEARWATER REVIVAL - "Green River" - Bass Tab

Common Time(4/4)
Standard Tuning(EADG)


INTRO:
|---------|---------|---------|---------|
|---------|---------|---------|---------|
|-r-e-s-t-|-r-e-s-t-|---------|-r-e-s-t-|
|---------|---------|-0-0-0-r-|---------|
  1 2 3 4   1 2 3 4   1 2 3 4   1 2 3 4

[ Tab from: http://www.guitartabs.cc/tabs/c/creedence_clearwater_revival/green_river_btab_ver_2.html ]
MAIN RIFF:
                        (x5)
|--------------|-------2----|-------------|---------|
|*-2---2-------|-2---2---5-*|-2---2-------|-2---2---|
|*-------2---2-|-----------*|-------2---2-|-------5-|
|--------------|------------|-------------|---------|
   1 2 & 3 4 &   1 2 & 3 4    1 2 & 3 4 &   1 2 3 4

|---------|---------|---------|---------|
|---------|---------|---------|---------| (just keep repeating
|-3---3---|-3---3---|-0---0---|-0---0-1-|      this riff) 
|---------|---------|---------|---------|
  1 2 3 4   1 2 3 4   1 2 3 4   1 2 3 4


By: Johari Taylor
E-mail: viking@powerup.com.au, or s369700@student.uq.edu.au
More Bass Tabs: http://www.powerup.com.au/~viking/basstab.htm

Comments