Creedence Clearwater Revival - Fortunate Son Chords & Tabs

 

Fortunate Son Chords & Tabs

Creedence Clearwater Revival Chords & Tabs

Version: 4 Type: Tab 0 ratings
1 star 2 stars 3 stars 4 stars 5 stars
comments

Fortunate Son Tab

-----------------------------------------------------------------------------
               Fortunate Son Tab by Creedence Clearwater Revival
-----------------------------------------------------------------------------

Tabbed By: Alex Miller
Email: Ram13093@aol.com

Tuning: Standard

Intro
e|------------------------| Play 2x
B|----8----6--------------|
G|---------------9-----7--|
D|-7/9--6/7---------------|
A|-----------8/10--8/10---|
E|------------------------|
[ Tab from: http://www.guitartabs.cc/tabs/c/creedence_clearwater_revival/fortunate_son_tab_ver_4.html ]
Verse
e|------------------------------| Play 2x
B|------------------------------|
G|---------------555-55---------|
D|-555-55-333-33-555-55-555-55--|
A|-555-55-333-33-333-33-555-55--|
E|-333-33-111-11--------333-33--|

Chorus
e|--------------------------| Play 2x
B|--------------------------|
G|-------77777-55555--------|
D|-55555-77777-55555-55555--|
A|-55555-55555-33333-55555--|
E|-33333-------------33333--|

Solo
e|-----------------| Play 2x
B|-----------------|
G|-10-9--9-\5-5/7--|
D|-12-11-11\7-7/9--|
A|-----------------|
E|-----------------|

Symbols:
h=hammer on
p=pull off
x=mute note
/=slide up
\=slide down
+=harmonics
~=vibrato
Comments