Creedence Clearwater Revival - Fortunate Son Chords & Tabs

 

Fortunate Son Chords & Tabs

Creedence Clearwater Revival Chords & Tabs

Version: 1 Type: Bass Tab 0 ratings
1 star 2 stars 3 stars 4 stars 5 stars
comments

Fortunate Son Bass Tab

   
#----------------------------------PLEASE NOTE---------------------------------#
#This file is the author's own work and represents their interpretation of the #
#song. You may only use this file for private study, scholarship, or research. #
#------------------------------------------------------------------------------##

Band:	Creedence Clearwater Revival
Song:	Fortunate Son
Tabbed by:	Mablung

Tuning (D A D G) - 'Dropped D'
 
I've been playing this song live for 2 years now and just sat down to listen
to the recording. This is a slight correction on John Speas's 
(kaspeas@worldnet.att.net) earlier tab. I can hear that the D note in the 
chorus is actually an open D and not a 5th fret on the A-String. Give it a 
listen and hear for yourself. 

 4/4
  Intro                             x5
  E E E E E E E E   E E E E E E E E
|-----------------|------------------|
|-----------------|-----------------0|
|-----------------|-----------------0|
|-5-5-5-5-5-5-5-5-|-5-5-5-5-5-5-5-5--|
[ Tab from: http://www.guitartabs.cc/tabs/c/creedence_clearwater_revival/fortunate_son_btab.html ]
Verses 1,2,3 (x2)
  E E E E E E E E   E E E E E E E E   E E E E E E E E   E E E E E E E E
|-----------------|-----------------|-----------------|-----------------|
|-----------------|-----------------|-----------------|-----------------|
|-----------------|-----------0-1-2-|-3-3-3-3-3-3-3-3-|-----------------|
|-5-5-5-5-5-5-5-5-|-3-3-3-3-3-------|-----------------|-5-5-5-5-5-5-5-5-|

Chorus
  E E E E E E E E   E E E E E E E E   E E E E E E E E   E E E E E E E E
|-----------------|-----------------|-----------------|-----------------|
|-----------------|-----------------|-----------------|-----------------|
|-----------------|-----------------|-3-3-3-3-3-3-3-3-|-----------------|
|-5-5-5-5-5-5-5-5-|-0-0-0-0-0-0-0-0-|-----------------|-5-5-5-5-5-5-5-5-|

Chorus (Sometimes)
  E E E E E E E E   E E E E E E E E   E E E E E E E E   E E E E E E E E
|-----------------|-----------------|-----------------|-----------------|
|-----------------|-----------------|-----------------|-----------------|
|-----------------|-----------------|-3-3-3-3-3-------|-----------------|
|-5-5-5-5-5-5-5-5-|-0-0-0-0-0-0-0-0-|-----------2-3-4-|-5-5-5-5-5-5-5-5-|

Guitar Solo
                            x2                             x2
  Q  Q  Q  Q    Q  Q  Q  Q    Q  Q  E E Q    Q  Q  E E Q
|-------------|--------------|--------------|---------------|
|-------------|-------------0|--------------|--------------0|
|-------------|-------------0|--------------|--------------0|
|-5--5--5--5--|-5--5--5--5---|-5--5--5-5-5--|-5--5--5-5-5---|

Comments? mablung@hotmail.com

Comments